  0
SECTION
  2
HEADER
  9
$ACADVER
  1
AC1009
  9
$EXTMIN
 10
326.402700
 20
334.111600
 30
0.000000
  9
$EXTMAX
 10
486.397300
 20
377.088400
 30
0.000000
  9
$LIMMIN
 10
326.402700
 20
334.111600
  9
$LIMMAX
 10
486.397300
 20
377.088400
  0
ENDSEC
  0
SECTION
  2
TABLES
  0
TABLE
  2
VPORT
 70
1
  0
VPORT
  2
*ACTIVE
 70
0
 10
0.000000
 20
0.000000
 11
1.000000
 21
1.000000
 12
406.400000
 22
355.600000
 13
0.000000
 23
0.000000
 14
1.000000
 24
1.000000
 15
0.000000
 25
0.000000
 16
0.000000
 26
0.000000
 36
1.000000
 17
0.000000
 27
0.000000
 37
0.000000
 40
355.600000
 41
1.750000
 42
50.000000
 43
0.000000
 44
0.000000
 50
0.000000
 51
0.000000
 71
0
 72
100
 73
1
 74
1
 75
0
 76
0
 77
0
 78
0
  0
ENDTAB
  0
TABLE
  2
LTYPE
 70
1
  0
LTYPE
  2
Continuous
 70
0
  3
Solid line
 72
65
 73
0
 40
0.000000
  0
ENDTAB
  0
TABLE
  2
LAYER
 70
91
  0
LAYER
  2
TopCopper
 70
0
 62
1
  6
Continuous
  0
LAYER
  2
BottomCopper
 70
0
 62
5
  6
Continuous
  0
LAYER
  2
ViaHoles
 70
0
 62
255
  6
Continuous
  0
LAYER
  2
Profile
 70
0
 62
55
  6
Continuous
  0
ENDTAB
  0
ENDSEC
  0
SECTION
  2
ENTITIES
  0
POLYLINE
  8
Profile
 66
1
 10
0.000000
 20
0.000000
 30
0.000000
 40
0.000000
 41
0.000000
  0
VERTEX
  8
Profile
 10
326.402700
 20
334.111600
  0
VERTEX
  8
Profile
 10
326.402700
 20
377.088400
  0
VERTEX
  8
Profile
 10
486.397300
 20
377.088400
  0
VERTEX
  8
Profile
 10
486.397300
 20
334.111600
  0
VERTEX
  8
Profile
 10
326.402700
 20
334.111600
  0
SEQEND
  0
POLYLINE
  8
TopCopper
 66
1
 10
0.000000
 20
0.000000
 30
0.000000
 40
0.762000
 41
0.762000
 70
1
  0
VERTEX
  8
TopCopper
 42
1.000000
 10
455.180700
 20
337.591400
  0
VERTEX
  8
TopCopper
 42
1.000000
 10
455.942700
 20
337.591400
  0
SEQEND
  0
POLYLINE
  8
TopCopper
 66
1
 10
0.000000
 20
0.000000
 30
0.000000
 40
0.762000
 41
0.762000
 70
1
  0
VERTEX
  8
TopCopper
 42
1.000000
 10
453.174100
 20
337.591400
  0
VERTEX
  8
TopCopper
 42
1.000000
 10
453.936100
 20
337.591400
  0
SEQEND
  0
POLYLINE
  8
TopCopper
 66
1
 10
0.000000
 20
0.000000
 30
0.000000
 40
0.762000
 41
0.762000
 70
1
  0
VERTEX
  8
TopCopper
 42
1.000000
 10
451.167500
 20
337.591400
  0
VERTEX
  8
TopCopper
 42
1.000000
 10
451.929500
 20
337.591400
  0
SEQEND
  0
POLYLINE
  8
TopCopper
 66
1
 10
0.000000
 20
0.000000
 30
0.000000
 40
0.762000
 41
0.762000
 70
1
  0
VERTEX
  8
TopCopper
 42
1.000000
 10
405.168100
 20
337.591400
  0
VERTEX
  8
TopCopper
 42
1.000000
 10
405.930100
 20
337.591400
  0
SEQEND
  0
POLYLINE
  8
TopCopper
 66
1
 10
0.000000
 20
0.000000
 30
0.000000
 40
0.762000
 41
0.762000
 70
1
  0
VERTEX
  8
TopCopper
 42
1.000000
 10
403.186900
 20
337.591400
  0
VERTEX
  8
TopCopper
 42
1.000000
 10
403.948900
 20
337.591400
  0
SEQEND
  0
POLYLINE
  8
TopCopper
 66
1
 10
0.000000
 20
0.000000
 30
0.000000
 40
0.762000
 41
0.762000
 70
1
  0
VERTEX
  8
TopCopper
 42
1.000000
 10
401.180300
 20
337.591400
  0
VERTEX
  8
TopCopper
 42
1.000000
 10
401.942300
 20
337.591400
  0
SEQEND
  0
POLYLINE
  8
TopCopper
 66
1
 10
0.000000
 20
0.000000
 30
0.000000
 40
0.762000
 41
0.762000
 70
1
  0
VERTEX
  8
TopCopper
 42
1.000000
 10
399.173700
 20
337.591400
  0
VERTEX
  8
TopCopper
 42
1.000000
 10
399.935700
 20
337.591400
  0
SEQEND
  0
POLYLINE
  8
TopCopper
 66
1
 10
0.000000
 20
0.000000
 30
0.000000
 40
0.762000
 41
0.762000
 70
1
  0
VERTEX
  8
TopCopper
 42
1.000000
 10
397.167100
 20
337.591400
  0
VERTEX
  8
TopCopper
 42
1.000000
 10
397.929100
 20
337.591400
  0
SEQEND
  0
POLYLINE
  8
TopCopper
 66
1
 10
0.000000
 20
0.000000
 30
0.000000
 40
0.762000
 41
0.762000
 70
1
  0
VERTEX
  8
TopCopper
 42
1.000000
 10
395.185900
 20
337.591400
  0
VERTEX
  8
TopCopper
 42
1.000000
 10
395.947900
 20
337.591400
  0
SEQEND
  0
POLYLINE
  8
TopCopper
 66
1
 10
0.000000
 20
0.000000
 30
0.000000
 40
0.762000
 41
0.762000
 70
1
  0
VERTEX
  8
TopCopper
 42
1.000000
 10
393.179300
 20
337.591400
  0
VERTEX
  8
TopCopper
 42
1.000000
 10
393.941300
 20
337.591400
  0
SEQEND
  0
POLYLINE
  8
TopCopper
 66
1
 10
0.000000
 20
0.000000
 30
0.000000
 40
0.762000
 41
0.762000
 70
1
  0
VERTEX
  8
TopCopper
 42
1.000000
 10
391.172700
 20
337.591400
  0
VERTEX
  8
TopCopper
 42
1.000000
 10
391.934700
 20
337.591400
  0
SEQEND
  0
POLYLINE
  8
TopCopper
 66
1
 10
0.000000
 20
0.000000
 30
0.000000
 40
0.762000
 41
0.762000
 70
1
  0
VERTEX
  8
TopCopper
 42
1.000000
 10
389.166100
 20
337.591400
  0
VERTEX
  8
TopCopper
 42
1.000000
 10
389.928100
 20
337.591400
  0
SEQEND
  0
POLYLINE
  8
TopCopper
 66
1
 10
0.000000
 20
0.000000
 30
0.000000
 40
0.762000
 41
0.762000
 70
1
  0
VERTEX
  8
TopCopper
 42
1.000000
 10
387.184900
 20
337.591400
  0
VERTEX
  8
TopCopper
 42
1.000000
 10
387.946900
 20
337.591400
  0
SEQEND
  0
POLYLINE
  8
TopCopper
 66
1
 10
0.000000
 20
0.000000
 30
0.000000
 40
0.762000
 41
0.762000
 70
1
  0
VERTEX
  8
TopCopper
 42
1.000000
 10
385.178300
 20
337.591400
  0
VERTEX
  8
TopCopper
 42
1.000000
 10
385.940300
 20
337.591400
  0
SEQEND
  0
POLYLINE
  8
TopCopper
 66
1
 10
0.000000
 20
0.000000
 30
0.000000
 40
0.762000
 41
0.762000
 70
1
  0
VERTEX
  8
TopCopper
 42
1.000000
 10
383.171700
 20
337.591400
  0
VERTEX
  8
TopCopper
 42
1.000000
 10
383.933700
 20
337.591400
  0
SEQEND
  0
POLYLINE
  8
TopCopper
 66
1
 10
0.000000
 20
0.000000
 30
0.000000
 40
0.762000
 41
0.762000
 70
1
  0
VERTEX
  8
TopCopper
 42
1.000000
 10
381.165100
 20
337.591400
  0
VERTEX
  8
TopCopper
 42
1.000000
 10
381.927100
 20
337.591400
  0
SEQEND
  0
POLYLINE
  8
TopCopper
 66
1
 10
0.000000
 20
0.000000
 30
0.000000
 40
0.762000
 41
0.762000
 70
1
  0
VERTEX
  8
TopCopper
 42
1.000000
 10
379.183900
 20
337.591400
  0
VERTEX
  8
TopCopper
 42
1.000000
 10
379.945900
 20
337.591400
  0
SEQEND
  0
POLYLINE
  8
TopCopper
 66
1
 10
0.000000
 20
0.000000
 30
0.000000
 40
0.762000
 41
0.762000
 70
1
  0
VERTEX
  8
TopCopper
 42
1.000000
 10
377.177300
 20
337.591400
  0
VERTEX
  8
TopCopper
 42
1.000000
 10
377.939300
 20
337.591400
  0
SEQEND
  0
POLYLINE
  8
TopCopper
 66
1
 10
0.000000
 20
0.000000
 30
0.000000
 40
0.762000
 41
0.762000
 70
1
  0
VERTEX
  8
TopCopper
 42
1.000000
 10
375.170700
 20
337.591400
  0
VERTEX
  8
TopCopper
 42
1.000000
 10
375.932700
 20
337.591400
  0
SEQEND
  0
POLYLINE
  8
TopCopper
 66
1
 10
0.000000
 20
0.000000
 30
0.000000
 40
0.762000
 41
0.762000
 70
1
  0
VERTEX
  8
TopCopper
 42
1.000000
 10
373.164100
 20
337.591400
  0
VERTEX
  8
TopCopper
 42
1.000000
 10
373.926100
 20
337.591400
  0
SEQEND
  0
POLYLINE
  8
TopCopper
 66
1
 10
0.000000
 20
0.000000
 30
0.000000
 40
0.762000
 41
0.762000
 70
1
  0
VERTEX
  8
TopCopper
 42
1.000000
 10
371.182900
 20
337.591400
  0
VERTEX
  8
TopCopper
 42
1.000000
 10
371.944900
 20
337.591400
  0
SEQEND
  0
POLYLINE
  8
TopCopper
 66
1
 10
0.000000
 20
0.000000
 30
0.000000
 40
0.762000
 41
0.762000
 70
1
  0
VERTEX
  8
TopCopper
 42
1.000000
 10
369.176300
 20
337.591400
  0
VERTEX
  8
TopCopper
 42
1.000000
 10
369.938300
 20
337.591400
  0
SEQEND
  0
POLYLINE
  8
TopCopper
 66
1
 10
0.000000
 20
0.000000
 30
0.000000
 40
0.762000
 41
0.762000
 70
1
  0
VERTEX
  8
TopCopper
 42
1.000000
 10
367.169700
 20
337.591400
  0
VERTEX
  8
TopCopper
 42
1.000000
 10
367.931700
 20
337.591400
  0
SEQEND
  0
POLYLINE
  8
TopCopper
 66
1
 10
0.000000
 20
0.000000
 30
0.000000
 40
0.762000
 41
0.762000
 70
1
  0
VERTEX
  8
TopCopper
 42
1.000000
 10
361.175300
 20
337.591400
  0
VERTEX
  8
TopCopper
 42
1.000000
 10
361.937300
 20
337.591400
  0
SEQEND
  0
POLYLINE
  8
TopCopper
 66
1
 10
0.000000
 20
0.000000
 30
0.000000
 40
0.762000
 41
0.762000
 70
1
  0
VERTEX
  8
TopCopper
 42
1.000000
 10
359.168700
 20
337.591400
  0
VERTEX
  8
TopCopper
 42
1.000000
 10
359.930700
 20
337.591400
  0
SEQEND
  0
POLYLINE
  8
TopCopper
 66
1
 10
0.000000
 20
0.000000
 30
0.000000
 40
0.762000
 41
0.762000
 70
1
  0
VERTEX
  8
TopCopper
 42
1.000000
 10
357.187500
 20
337.591400
  0
VERTEX
  8
TopCopper
 42
1.000000
 10
357.949500
 20
337.591400
  0
SEQEND
  0
POLYLINE
  8
TopCopper
 66
1
 10
0.000000
 20
0.000000
 30
0.000000
 40
0.762000
 41
0.762000
 70
1
  0
VERTEX
  8
TopCopper
 42
1.000000
 10
379.666500
 20
365.861600
  0
VERTEX
  8
TopCopper
 42
1.000000
 10
380.428500
 20
365.861600
  0
SEQEND
  0
POLYLINE
  8
TopCopper
 66
1
 10
0.000000
 20
0.000000
 30
0.000000
 40
0.762000
 41
0.762000
 70
1
  0
VERTEX
  8
TopCopper
 42
1.000000
 10
377.126500
 20
365.861600
  0
VERTEX
  8
TopCopper
 42
1.000000
 10
377.888500
 20
365.861600
  0
SEQEND
  0
POLYLINE
  8
TopCopper
 66
1
 10
0.000000
 20
0.000000
 30
0.000000
 40
0.762000
 41
0.762000
 70
1
  0
VERTEX
  8
TopCopper
 42
1.000000
 10
374.586500
 20
365.861600
  0
VERTEX
  8
TopCopper
 42
1.000000
 10
375.348500
 20
365.861600
  0
SEQEND
  0
POLYLINE
  8
TopCopper
 66
1
 10
0.000000
 20
0.000000
 30
0.000000
 40
0.762000
 41
0.762000
 70
1
  0
VERTEX
  8
TopCopper
 42
1.000000
 10
372.046500
 20
365.861600
  0
VERTEX
  8
TopCopper
 42
1.000000
 10
372.808500
 20
365.861600
  0
SEQEND
  0
POLYLINE
  8
TopCopper
 66
1
 10
0.000000
 20
0.000000
 30
0.000000
 40
0.762000
 41
0.762000
 70
1
  0
VERTEX
  8
TopCopper
 42
1.000000
 10
372.046500
 20
358.241600
  0
VERTEX
  8
TopCopper
 42
1.000000
 10
372.808500
 20
358.241600
  0
SEQEND
  0
POLYLINE
  8
TopCopper
 66
1
 10
0.000000
 20
0.000000
 30
0.000000
 40
0.762000
 41
0.762000
 70
1
  0
VERTEX
  8
TopCopper
 42
1.000000
 10
374.586500
 20
358.241600
  0
VERTEX
  8
TopCopper
 42
1.000000
 10
375.348500
 20
358.241600
  0
SEQEND
  0
POLYLINE
  8
TopCopper
 66
1
 10
0.000000
 20
0.000000
 30
0.000000
 40
0.762000
 41
0.762000
 70
1
  0
VERTEX
  8
TopCopper
 42
1.000000
 10
377.126500
 20
358.241600
  0
VERTEX
  8
TopCopper
 42
1.000000
 10
377.888500
 20
358.241600
  0
SEQEND
  0
POLYLINE
  8
TopCopper
 66
1
 10
0.000000
 20
0.000000
 30
0.000000
 40
0.762000
 41
0.762000
 70
1
  0
VERTEX
  8
TopCopper
 42
1.000000
 10
379.666500
 20
358.241600
  0
VERTEX
  8
TopCopper
 42
1.000000
 10
380.428500
 20
358.241600
  0
SEQEND
  0
POLYLINE
  8
TopCopper
 66
1
 10
0.000000
 20
0.000000
 30
0.000000
 40
0.762000
 41
0.762000
 70
1
  0
VERTEX
  8
TopCopper
 42
1.000000
 10
336.003900
 20
338.836000
  0
VERTEX
  8
TopCopper
 42
1.000000
 10
336.765900
 20
338.836000
  0
SEQEND
  0
POLYLINE
  8
TopCopper
 66
1
 10
0.000000
 20
0.000000
 30
0.000000
 40
0.762000
 41
0.762000
 70
1
  0
VERTEX
  8
TopCopper
 42
1.000000
 10
336.003900
 20
341.376000
  0
VERTEX
  8
TopCopper
 42
1.000000
 10
336.765900
 20
341.376000
  0
SEQEND
  0
POLYLINE
  8
TopCopper
 66
1
 10
0.000000
 20
0.000000
 30
0.000000
 40
0.762000
 41
0.762000
 70
1
  0
VERTEX
  8
TopCopper
 42
1.000000
 10
426.529500
 20
372.846600
  0
VERTEX
  8
TopCopper
 42
1.000000
 10
427.291500
 20
372.846600
  0
SEQEND
  0
POLYLINE
  8
TopCopper
 66
1
 10
0.000000
 20
0.000000
 30
0.000000
 40
0.762000
 41
0.762000
 70
1
  0
VERTEX
  8
TopCopper
 42
1.000000
 10
401.129500
 20
372.846600
  0
VERTEX
  8
TopCopper
 42
1.000000
 10
401.891500
 20
372.846600
  0
SEQEND
  0
POLYLINE
  8
TopCopper
 66
1
 10
0.000000
 20
0.000000
 30
0.000000
 40
0.762000
 41
0.762000
 70
1
  0
VERTEX
  8
TopCopper
 42
1.000000
 10
373.189500
 20
372.846600
  0
VERTEX
  8
TopCopper
 42
1.000000
 10
373.951500
 20
372.846600
  0
SEQEND
  0
POLYLINE
  8
TopCopper
 66
1
 10
0.000000
 20
0.000000
 30
0.000000
 40
0.762000
 41
0.762000
 70
1
  0
VERTEX
  8
TopCopper
 42
1.000000
 10
398.589500
 20
372.846600
  0
VERTEX
  8
TopCopper
 42
1.000000
 10
399.351500
 20
372.846600
  0
SEQEND
  0
POLYLINE
  8
TopCopper
 66
1
 10
0.000000
 20
0.000000
 30
0.000000
 40
0.762000
 41
0.762000
 70
1
  0
VERTEX
  8
TopCopper
 42
1.000000
 10
362.394500
 20
374.751600
  0
VERTEX
  8
TopCopper
 42
1.000000
 10
363.156500
 20
374.751600
  0
SEQEND
  0
POLYLINE
  8
TopCopper
 66
1
 10
0.000000
 20
0.000000
 30
0.000000
 40
0.762000
 41
0.762000
 70
1
  0
VERTEX
  8
TopCopper
 42
1.000000
 10
362.394500
 20
372.211600
  0
VERTEX
  8
TopCopper
 42
1.000000
 10
363.156500
 20
372.211600
  0
SEQEND
  0
POLYLINE
  8
TopCopper
 66
1
 10
0.000000
 20
0.000000
 30
0.000000
 40
0.698500
 41
0.698500
 70
1
  0
VERTEX
  8
TopCopper
 42
1.000000
 10
397.249650
 20
364.210600
  0
VERTEX
  8
TopCopper
 42
1.000000
 10
397.948150
 20
364.210600
  0
SEQEND
  0
POLYLINE
  8
TopCopper
 66
1
 10
0.000000
 20
0.000000
 30
0.000000
 40
0.698500
 41
0.698500
 70
1
  0
VERTEX
  8
TopCopper
 42
1.000000
 10
397.249650
 20
366.217200
  0
VERTEX
  8
TopCopper
 42
1.000000
 10
397.948150
 20
366.217200
  0
SEQEND
  0
POLYLINE
  8
TopCopper
 66
1
 10
0.000000
 20
0.000000
 30
0.000000
 40
0.698500
 41
0.698500
 70
1
  0
VERTEX
  8
TopCopper
 42
1.000000
 10
399.230850
 20
364.210600
  0
VERTEX
  8
TopCopper
 42
1.000000
 10
399.929350
 20
364.210600
  0
SEQEND
  0
POLYLINE
  8
TopCopper
 66
1
 10
0.000000
 20
0.000000
 30
0.000000
 40
0.698500
 41
0.698500
 70
1
  0
VERTEX
  8
TopCopper
 42
1.000000
 10
399.230850
 20
366.217200
  0
VERTEX
  8
TopCopper
 42
1.000000
 10
399.929350
 20
366.217200
  0
SEQEND
  0
POLYLINE
  8
TopCopper
 66
1
 10
0.000000
 20
0.000000
 30
0.000000
 40
0.698500
 41
0.698500
 70
1
  0
VERTEX
  8
TopCopper
 42
1.000000
 10
401.237450
 20
364.210600
  0
VERTEX
  8
TopCopper
 42
1.000000
 10
401.935950
 20
364.210600
  0
SEQEND
  0
POLYLINE
  8
TopCopper
 66
1
 10
0.000000
 20
0.000000
 30
0.000000
 40
0.698500
 41
0.698500
 70
1
  0
VERTEX
  8
TopCopper
 42
1.000000
 10
401.237450
 20
366.217200
  0
VERTEX
  8
TopCopper
 42
1.000000
 10
401.935950
 20
366.217200
  0
SEQEND
  0
POLYLINE
  8
TopCopper
 66
1
 10
0.000000
 20
0.000000
 30
0.000000
 40
0.698500
 41
0.698500
 70
1
  0
VERTEX
  8
TopCopper
 42
1.000000
 10
403.244050
 20
364.210600
  0
VERTEX
  8
TopCopper
 42
1.000000
 10
403.942550
 20
364.210600
  0
SEQEND
  0
POLYLINE
  8
TopCopper
 66
1
 10
0.000000
 20
0.000000
 30
0.000000
 40
0.698500
 41
0.698500
 70
1
  0
VERTEX
  8
TopCopper
 42
1.000000
 10
403.244050
 20
366.217200
  0
VERTEX
  8
TopCopper
 42
1.000000
 10
403.942550
 20
366.217200
  0
SEQEND
  0
POLYLINE
  8
TopCopper
 66
1
 10
0.000000
 20
0.000000
 30
0.000000
 40
0.698500
 41
0.698500
 70
1
  0
VERTEX
  8
TopCopper
 42
1.000000
 10
405.250650
 20
364.210600
  0
VERTEX
  8
TopCopper
 42
1.000000
 10
405.949150
 20
364.210600
  0
SEQEND
  0
POLYLINE
  8
TopCopper
 66
1
 10
0.000000
 20
0.000000
 30
0.000000
 40
0.698500
 41
0.698500
 70
1
  0
VERTEX
  8
TopCopper
 42
1.000000
 10
405.250650
 20
366.217200
  0
VERTEX
  8
TopCopper
 42
1.000000
 10
405.949150
 20
366.217200
  0
SEQEND
  0
POLYLINE
  8
TopCopper
 66
1
 10
0.000000
 20
0.000000
 30
0.000000
 40
0.698500
 41
0.698500
 70
1
  0
VERTEX
  8
TopCopper
 42
1.000000
 10
407.231850
 20
364.210600
  0
VERTEX
  8
TopCopper
 42
1.000000
 10
407.930350
 20
364.210600
  0
SEQEND
  0
POLYLINE
  8
TopCopper
 66
1
 10
0.000000
 20
0.000000
 30
0.000000
 40
0.698500
 41
0.698500
 70
1
  0
VERTEX
  8
TopCopper
 42
1.000000
 10
407.231850
 20
366.217200
  0
VERTEX
  8
TopCopper
 42
1.000000
 10
407.930350
 20
366.217200
  0
SEQEND
  0
POLYLINE
  8
TopCopper
 66
1
 10
0.000000
 20
0.000000
 30
0.000000
 40
0.698500
 41
0.698500
 70
1
  0
VERTEX
  8
TopCopper
 42
1.000000
 10
409.238450
 20
364.210600
  0
VERTEX
  8
TopCopper
 42
1.000000
 10
409.936950
 20
364.210600
  0
SEQEND
  0
POLYLINE
  8
TopCopper
 66
1
 10
0.000000
 20
0.000000
 30
0.000000
 40
0.698500
 41
0.698500
 70
1
  0
VERTEX
  8
TopCopper
 42
1.000000
 10
409.238450
 20
366.217200
  0
VERTEX
  8
TopCopper
 42
1.000000
 10
409.936950
 20
366.217200
  0
SEQEND
  0
POLYLINE
  8
TopCopper
 66
1
 10
0.000000
 20
0.000000
 30
0.000000
 40
0.698500
 41
0.698500
 70
1
  0
VERTEX
  8
TopCopper
 42
1.000000
 10
411.245050
 20
364.210600
  0
VERTEX
  8
TopCopper
 42
1.000000
 10
411.943550
 20
364.210600
  0
SEQEND
  0
POLYLINE
  8
TopCopper
 66
1
 10
0.000000
 20
0.000000
 30
0.000000
 40
0.698500
 41
0.698500
 70
1
  0
VERTEX
  8
TopCopper
 42
1.000000
 10
411.245050
 20
366.217200
  0
VERTEX
  8
TopCopper
 42
1.000000
 10
411.943550
 20
366.217200
  0
SEQEND
  0
POLYLINE
  8
TopCopper
 66
1
 10
0.000000
 20
0.000000
 30
0.000000
 40
0.698500
 41
0.698500
 70
1
  0
VERTEX
  8
TopCopper
 42
1.000000
 10
413.251650
 20
364.210600
  0
VERTEX
  8
TopCopper
 42
1.000000
 10
413.950150
 20
364.210600
  0
SEQEND
  0
POLYLINE
  8
TopCopper
 66
1
 10
0.000000
 20
0.000000
 30
0.000000
 40
0.698500
 41
0.698500
 70
1
  0
VERTEX
  8
TopCopper
 42
1.000000
 10
413.251650
 20
366.217200
  0
VERTEX
  8
TopCopper
 42
1.000000
 10
413.950150
 20
366.217200
  0
SEQEND
  0
POLYLINE
  8
TopCopper
 66
1
 10
0.000000
 20
0.000000
 30
0.000000
 40
0.698500
 41
0.698500
 70
1
  0
VERTEX
  8
TopCopper
 42
1.000000
 10
415.232850
 20
364.210600
  0
VERTEX
  8
TopCopper
 42
1.000000
 10
415.931350
 20
364.210600
  0
SEQEND
  0
POLYLINE
  8
TopCopper
 66
1
 10
0.000000
 20
0.000000
 30
0.000000
 40
0.698500
 41
0.698500
 70
1
  0
VERTEX
  8
TopCopper
 42
1.000000
 10
415.232850
 20
366.217200
  0
VERTEX
  8
TopCopper
 42
1.000000
 10
415.931350
 20
366.217200
  0
SEQEND
  0
POLYLINE
  8
TopCopper
 66
1
 10
0.000000
 20
0.000000
 30
0.000000
 40
0.698500
 41
0.698500
 70
1
  0
VERTEX
  8
TopCopper
 42
1.000000
 10
335.045050
 20
375.107200
  0
VERTEX
  8
TopCopper
 42
1.000000
 10
335.743550
 20
375.107200
  0
SEQEND
  0
POLYLINE
  8
TopCopper
 66
1
 10
0.000000
 20
0.000000
 30
0.000000
 40
0.698500
 41
0.698500
 70
1
  0
VERTEX
  8
TopCopper
 42
1.000000
 10
337.051650
 20
375.107200
  0
VERTEX
  8
TopCopper
 42
1.000000
 10
337.750150
 20
375.107200
  0
SEQEND
  0
POLYLINE
  8
TopCopper
 66
1
 10
0.000000
 20
0.000000
 30
0.000000
 40
0.698500
 41
0.698500
 70
1
  0
VERTEX
  8
TopCopper
 42
1.000000
 10
339.058250
 20
375.107200
  0
VERTEX
  8
TopCopper
 42
1.000000
 10
339.756750
 20
375.107200
  0
SEQEND
  0
POLYLINE
  8
TopCopper
 66
1
 10
0.000000
 20
0.000000
 30
0.000000
 40
0.698500
 41
0.698500
 70
1
  0
VERTEX
  8
TopCopper
 42
1.000000
 10
341.064850
 20
375.107200
  0
VERTEX
  8
TopCopper
 42
1.000000
 10
341.763350
 20
375.107200
  0
SEQEND
  0
POLYLINE
  8
TopCopper
 66
1
 10
0.000000
 20
0.000000
 30
0.000000
 40
0.698500
 41
0.698500
 70
1
  0
VERTEX
  8
TopCopper
 42
1.000000
 10
343.020650
 20
375.107200
  0
VERTEX
  8
TopCopper
 42
1.000000
 10
343.719150
 20
375.107200
  0
SEQEND
  0
POLYLINE
  8
TopCopper
 66
1
 10
0.000000
 20
0.000000
 30
0.000000
 40
0.698500
 41
0.698500
 70
1
  0
VERTEX
  8
TopCopper
 42
1.000000
 10
335.045050
 20
373.100600
  0
VERTEX
  8
TopCopper
 42
1.000000
 10
335.743550
 20
373.100600
  0
SEQEND
  0
POLYLINE
  8
TopCopper
 66
1
 10
0.000000
 20
0.000000
 30
0.000000
 40
0.698500
 41
0.698500
 70
1
  0
VERTEX
  8
TopCopper
 42
1.000000
 10
337.051650
 20
373.100600
  0
VERTEX
  8
TopCopper
 42
1.000000
 10
337.750150
 20
373.100600
  0
SEQEND
  0
POLYLINE
  8
TopCopper
 66
1
 10
0.000000
 20
0.000000
 30
0.000000
 40
0.698500
 41
0.698500
 70
1
  0
VERTEX
  8
TopCopper
 42
1.000000
 10
339.058250
 20
373.100600
  0
VERTEX
  8
TopCopper
 42
1.000000
 10
339.756750
 20
373.100600
  0
SEQEND
  0
POLYLINE
  8
TopCopper
 66
1
 10
0.000000
 20
0.000000
 30
0.000000
 40
0.698500
 41
0.698500
 70
1
  0
VERTEX
  8
TopCopper
 42
1.000000
 10
341.064850
 20
373.100600
  0
VERTEX
  8
TopCopper
 42
1.000000
 10
341.763350
 20
373.100600
  0
SEQEND
  0
POLYLINE
  8
TopCopper
 66
1
 10
0.000000
 20
0.000000
 30
0.000000
 40
0.698500
 41
0.698500
 70
1
  0
VERTEX
  8
TopCopper
 42
1.000000
 10
343.020650
 20
373.100600
  0
VERTEX
  8
TopCopper
 42
1.000000
 10
343.719150
 20
373.100600
  0
SEQEND
  0
POLYLINE
  8
TopCopper
 66
1
 10
0.000000
 20
0.000000
 30
0.000000
 40
0.762000
 41
0.762000
 70
1
  0
VERTEX
  8
TopCopper
 42
1.000000
 10
373.189500
 20
368.401600
  0
VERTEX
  8
TopCopper
 42
1.000000
 10
373.951500
 20
368.401600
  0
SEQEND
  0
POLYLINE
  8
TopCopper
 66
1
 10
0.000000
 20
0.000000
 30
0.000000
 40
0.635000
 41
0.635000
 70
1
  0
VERTEX
  8
TopCopper
 10
432.308000
 20
373.164100
  0
VERTEX
  8
TopCopper
 10
432.308000
 20
373.799100
  0
VERTEX
  8
TopCopper
 10
431.673000
 20
373.799100
  0
VERTEX
  8
TopCopper
 10
431.673000
 20
373.164100
  0
SEQEND
  0
POLYLINE
  8
TopCopper
 66
1
 10
0.000000
 20
0.000000
 30
0.000000
 40
0.635000
 41
0.635000
 70
1
  0
VERTEX
  8
TopCopper
 10
398.653000
 20
358.559100
  0
VERTEX
  8
TopCopper
 10
398.653000
 20
359.194100
  0
VERTEX
  8
TopCopper
 10
398.018000
 20
359.194100
  0
VERTEX
  8
TopCopper
 10
398.018000
 20
358.559100
  0
SEQEND
  0
POLYLINE
  8
TopCopper
 66
1
 10
0.000000
 20
0.000000
 30
0.000000
 40
0.635000
 41
0.635000
 70
1
  0
VERTEX
  8
TopCopper
 10
442.468000
 20
336.334100
  0
VERTEX
  8
TopCopper
 10
442.468000
 20
336.969100
  0
VERTEX
  8
TopCopper
 10
441.833000
 20
336.969100
  0
VERTEX
  8
TopCopper
 10
441.833000
 20
336.334100
  0
SEQEND
  0
POLYLINE
  8
TopCopper
 66
1
 10
0.000000
 20
0.000000
 30
0.000000
 40
0.635000
 41
0.635000
 70
1
  0
VERTEX
  8
TopCopper
 10
423.418000
 20
355.384100
  0
VERTEX
  8
TopCopper
 10
423.418000
 20
356.019100
  0
VERTEX
  8
TopCopper
 10
422.783000
 20
356.019100
  0
VERTEX
  8
TopCopper
 10
422.783000
 20
355.384100
  0
SEQEND
  0
POLYLINE
  8
TopCopper
 66
1
 10
0.000000
 20
0.000000
 30
0.000000
 40
0.635000
 41
0.635000
 70
1
  0
VERTEX
  8
TopCopper
 10
425.323000
 20
361.734100
  0
VERTEX
  8
TopCopper
 10
425.323000
 20
362.369100
  0
VERTEX
  8
TopCopper
 10
424.688000
 20
362.369100
  0
VERTEX
  8
TopCopper
 10
424.688000
 20
361.734100
  0
SEQEND
  0
POLYLINE
  8
TopCopper
 66
1
 10
0.000000
 20
0.000000
 30
0.000000
 40
0.635000
 41
0.635000
 70
1
  0
VERTEX
  8
TopCopper
 10
437.388000
 20
373.164100
  0
VERTEX
  8
TopCopper
 10
437.388000
 20
373.799100
  0
VERTEX
  8
TopCopper
 10
436.753000
 20
373.799100
  0
VERTEX
  8
TopCopper
 10
436.753000
 20
373.164100
  0
SEQEND
  0
POLYLINE
  8
TopCopper
 66
1
 10
0.000000
 20
0.000000
 30
0.000000
 40
0.635000
 41
0.635000
 70
1
  0
VERTEX
  8
TopCopper
 10
422.783000
 20
361.734100
  0
VERTEX
  8
TopCopper
 10
422.783000
 20
362.369100
  0
VERTEX
  8
TopCopper
 10
422.148000
 20
362.369100
  0
VERTEX
  8
TopCopper
 10
422.148000
 20
361.734100
  0
SEQEND
  0
POLYLINE
  8
TopCopper
 66
1
 10
0.000000
 20
0.000000
 30
0.000000
 40
0.635000
 41
0.635000
 70
1
  0
VERTEX
  8
TopCopper
 10
423.418000
 20
345.224100
  0
VERTEX
  8
TopCopper
 10
423.418000
 20
345.859100
  0
VERTEX
  8
TopCopper
 10
422.783000
 20
345.859100
  0
VERTEX
  8
TopCopper
 10
422.783000
 20
345.224100
  0
SEQEND
  0
POLYLINE
  8
TopCopper
 66
1
 10
0.000000
 20
0.000000
 30
0.000000
 40
0.635000
 41
0.635000
 70
1
  0
VERTEX
  8
TopCopper
 10
449.453000
 20
359.829100
  0
VERTEX
  8
TopCopper
 10
449.453000
 20
360.464100
  0
VERTEX
  8
TopCopper
 10
448.818000
 20
360.464100
  0
VERTEX
  8
TopCopper
 10
448.818000
 20
359.829100
  0
SEQEND
  0
POLYLINE
  8
TopCopper
 66
1
 10
0.000000
 20
0.000000
 30
0.000000
 40
0.635000
 41
0.635000
 70
1
  0
VERTEX
  8
TopCopper
 10
458.343000
 20
359.829100
  0
VERTEX
  8
TopCopper
 10
458.343000
 20
360.464100
  0
VERTEX
  8
TopCopper
 10
457.708000
 20
360.464100
  0
VERTEX
  8
TopCopper
 10
457.708000
 20
359.829100
  0
SEQEND
  0
POLYLINE
  8
TopCopper
 66
1
 10
0.000000
 20
0.000000
 30
0.000000
 40
0.635000
 41
0.635000
 70
1
  0
VERTEX
  8
TopCopper
 10
366.268000
 20
353.479100
  0
VERTEX
  8
TopCopper
 10
366.268000
 20
354.114100
  0
VERTEX
  8
TopCopper
 10
365.633000
 20
354.114100
  0
VERTEX
  8
TopCopper
 10
365.633000
 20
353.479100
  0
SEQEND
  0
POLYLINE
  8
TopCopper
 66
1
 10
0.000000
 20
0.000000
 30
0.000000
 40
0.635000
 41
0.635000
 70
1
  0
VERTEX
  8
TopCopper
 10
359.918000
 20
353.479100
  0
VERTEX
  8
TopCopper
 10
359.918000
 20
354.114100
  0
VERTEX
  8
TopCopper
 10
359.283000
 20
354.114100
  0
VERTEX
  8
TopCopper
 10
359.283000
 20
353.479100
  0
SEQEND
  0
POLYLINE
  8
TopCopper
 66
1
 10
0.000000
 20
0.000000
 30
0.000000
 40
0.635000
 41
0.635000
 70
1
  0
VERTEX
  8
TopCopper
 10
359.918000
 20
356.019100
  0
VERTEX
  8
TopCopper
 10
359.918000
 20
356.654100
  0
VERTEX
  8
TopCopper
 10
359.283000
 20
356.654100
  0
VERTEX
  8
TopCopper
 10
359.283000
 20
356.019100
  0
SEQEND
  0
POLYLINE
  8
TopCopper
 66
1
 10
0.000000
 20
0.000000
 30
0.000000
 40
0.635000
 41
0.635000
 70
1
  0
VERTEX
  8
TopCopper
 10
377.063000
 20
350.939100
  0
VERTEX
  8
TopCopper
 10
377.063000
 20
351.574100
  0
VERTEX
  8
TopCopper
 10
376.428000
 20
351.574100
  0
VERTEX
  8
TopCopper
 10
376.428000
 20
350.939100
  0
SEQEND
  0
POLYLINE
  8
TopCopper
 66
1
 10
0.000000
 20
0.000000
 30
0.000000
 40
0.635000
 41
0.635000
 70
1
  0
VERTEX
  8
TopCopper
 10
439.293000
 20
358.559100
  0
VERTEX
  8
TopCopper
 10
439.293000
 20
359.194100
  0
VERTEX
  8
TopCopper
 10
438.658000
 20
359.194100
  0
VERTEX
  8
TopCopper
 10
438.658000
 20
358.559100
  0
SEQEND
  0
POLYLINE
  8
TopCopper
 66
1
 10
0.000000
 20
0.000000
 30
0.000000
 40
0.635000
 41
0.635000
 70
1
  0
VERTEX
  8
TopCopper
 10
449.453000
 20
354.749100
  0
VERTEX
  8
TopCopper
 10
449.453000
 20
355.384100
  0
VERTEX
  8
TopCopper
 10
448.818000
 20
355.384100
  0
VERTEX
  8
TopCopper
 10
448.818000
 20
354.749100
  0
SEQEND
  0
POLYLINE
  8
TopCopper
 66
1
 10
0.000000
 20
0.000000
 30
0.000000
 40
0.635000
 41
0.635000
 70
1
  0
VERTEX
  8
TopCopper
 10
449.453000
 20
352.209100
  0
VERTEX
  8
TopCopper
 10
449.453000
 20
352.844100
  0
VERTEX
  8
TopCopper
 10
448.818000
 20
352.844100
  0
VERTEX
  8
TopCopper
 10
448.818000
 20
352.209100
  0
SEQEND
  0
POLYLINE
  8
TopCopper
 66
1
 10
0.000000
 20
0.000000
 30
0.000000
 40
0.635000
 41
0.635000
 70
1
  0
VERTEX
  8
TopCopper
 10
449.453000
 20
349.669100
  0
VERTEX
  8
TopCopper
 10
449.453000
 20
350.304100
  0
VERTEX
  8
TopCopper
 10
448.818000
 20
350.304100
  0
VERTEX
  8
TopCopper
 10
448.818000
 20
349.669100
  0
SEQEND
  0
POLYLINE
  8
TopCopper
 66
1
 10
0.000000
 20
0.000000
 30
0.000000
 40
0.635000
 41
0.635000
 70
1
  0
VERTEX
  8
TopCopper
 10
366.268000
 20
357.289100
  0
VERTEX
  8
TopCopper
 10
366.268000
 20
357.924100
  0
VERTEX
  8
TopCopper
 10
365.633000
 20
357.924100
  0
VERTEX
  8
TopCopper
 10
365.633000
 20
357.289100
  0
SEQEND
  0
POLYLINE
  8
TopCopper
 66
1
 10
0.000000
 20
0.000000
 30
0.000000
 40
0.635000
 41
0.635000
 70
1
  0
VERTEX
  8
TopCopper
 10
434.213000
 20
358.559100
  0
VERTEX
  8
TopCopper
 10
434.213000
 20
359.194100
  0
VERTEX
  8
TopCopper
 10
433.578000
 20
359.194100
  0
VERTEX
  8
TopCopper
 10
433.578000
 20
358.559100
  0
SEQEND
  0
POLYLINE
  8
TopCopper
 66
1
 10
0.000000
 20
0.000000
 30
0.000000
 40
0.635000
 41
0.635000
 70
1
  0
VERTEX
  8
TopCopper
 10
449.453000
 20
372.529100
  0
VERTEX
  8
TopCopper
 10
449.453000
 20
373.164100
  0
VERTEX
  8
TopCopper
 10
448.818000
 20
373.164100
  0
VERTEX
  8
TopCopper
 10
448.818000
 20
372.529100
  0
SEQEND
  0
POLYLINE
  8
TopCopper
 66
1
 10
0.000000
 20
0.000000
 30
0.000000
 40
0.635000
 41
0.635000
 70
1
  0
VERTEX
  8
TopCopper
 10
339.598000
 20
338.239100
  0
VERTEX
  8
TopCopper
 10
339.598000
 20
338.874100
  0
VERTEX
  8
TopCopper
 10
338.963000
 20
338.874100
  0
VERTEX
  8
TopCopper
 10
338.963000
 20
338.239100
  0
SEQEND
  0
POLYLINE
  8
TopCopper
 66
1
 10
0.000000
 20
0.000000
 30
0.000000
 40
0.635000
 41
0.635000
 70
1
  0
VERTEX
  8
TopCopper
 10
420.243000
 20
342.049100
  0
VERTEX
  8
TopCopper
 10
420.243000
 20
342.684100
  0
VERTEX
  8
TopCopper
 10
419.608000
 20
342.684100
  0
VERTEX
  8
TopCopper
 10
419.608000
 20
342.049100
  0
SEQEND
  0
POLYLINE
  8
TopCopper
 66
1
 10
0.000000
 20
0.000000
 30
0.000000
 40
0.635000
 41
0.635000
 70
1
  0
VERTEX
  8
TopCopper
 10
392.303000
 20
363.639100
  0
VERTEX
  8
TopCopper
 10
392.303000
 20
364.274100
  0
VERTEX
  8
TopCopper
 10
391.668000
 20
364.274100
  0
VERTEX
  8
TopCopper
 10
391.668000
 20
363.639100
  0
SEQEND
  0
POLYLINE
  8
TopCopper
 66
1
 10
0.000000
 20
0.000000
 30
0.000000
 40
0.635000
 41
0.635000
 70
1
  0
VERTEX
  8
TopCopper
 10
414.528000
 20
339.509100
  0
VERTEX
  8
TopCopper
 10
414.528000
 20
340.144100
  0
VERTEX
  8
TopCopper
 10
413.893000
 20
340.144100
  0
VERTEX
  8
TopCopper
 10
413.893000
 20
339.509100
  0
SEQEND
  0
POLYLINE
  8
TopCopper
 66
1
 10
0.000000
 20
0.000000
 30
0.000000
 40
0.635000
 41
0.635000
 70
1
  0
VERTEX
  8
TopCopper
 10
429.133000
 20
342.049100
  0
VERTEX
  8
TopCopper
 10
429.133000
 20
342.684100
  0
VERTEX
  8
TopCopper
 10
428.498000
 20
342.684100
  0
VERTEX
  8
TopCopper
 10
428.498000
 20
342.049100
  0
SEQEND
  0
POLYLINE
  8
TopCopper
 66
1
 10
0.000000
 20
0.000000
 30
0.000000
 40
0.635000
 41
0.635000
 70
1
  0
VERTEX
  8
TopCopper
 10
422.148000
 20
349.034100
  0
VERTEX
  8
TopCopper
 10
422.148000
 20
349.669100
  0
VERTEX
  8
TopCopper
 10
421.513000
 20
349.669100
  0
VERTEX
  8
TopCopper
 10
421.513000
 20
349.034100
  0
SEQEND
  0
POLYLINE
  8
TopCopper
 66
1
 10
0.000000
 20
0.000000
 30
0.000000
 40
0.635000
 41
0.635000
 70
1
  0
VERTEX
  8
TopCopper
 10
455.168000
 20
340.779100
  0
VERTEX
  8
TopCopper
 10
455.168000
 20
341.414100
  0
VERTEX
  8
TopCopper
 10
454.533000
 20
341.414100
  0
VERTEX
  8
TopCopper
 10
454.533000
 20
340.779100
  0
SEQEND
  0
POLYLINE
  8
TopCopper
 66
1
 10
0.000000
 20
0.000000
 30
0.000000
 40
0.635000
 41
0.635000
 70
1
  0
VERTEX
  8
TopCopper
 10
450.088000
 20
340.779100
  0
VERTEX
  8
TopCopper
 10
450.088000
 20
341.414100
  0
VERTEX
  8
TopCopper
 10
449.453000
 20
341.414100
  0
VERTEX
  8
TopCopper
 10
449.453000
 20
340.779100
  0
SEQEND
  0
POLYLINE
  8
TopCopper
 66
1
 10
0.000000
 20
0.000000
 30
0.000000
 40
0.635000
 41
0.635000
 70
1
  0
VERTEX
  8
TopCopper
 10
455.168000
 20
343.319100
  0
VERTEX
  8
TopCopper
 10
455.168000
 20
343.954100
  0
VERTEX
  8
TopCopper
 10
454.533000
 20
343.954100
  0
VERTEX
  8
TopCopper
 10
454.533000
 20
343.319100
  0
SEQEND
  0
POLYLINE
  8
TopCopper
 66
1
 10
0.000000
 20
0.000000
 30
0.000000
 40
0.635000
 41
0.635000
 70
1
  0
VERTEX
  8
TopCopper
 10
443.738000
 20
344.589100
  0
VERTEX
  8
TopCopper
 10
443.738000
 20
345.224100
  0
VERTEX
  8
TopCopper
 10
443.103000
 20
345.224100
  0
VERTEX
  8
TopCopper
 10
443.103000
 20
344.589100
  0
SEQEND
  0
POLYLINE
  8
TopCopper
 66
1
 10
0.000000
 20
0.000000
 30
0.000000
 40
0.635000
 41
0.635000
 70
1
  0
VERTEX
  8
TopCopper
 10
455.168000
 20
354.749100
  0
VERTEX
  8
TopCopper
 10
455.168000
 20
355.384100
  0
VERTEX
  8
TopCopper
 10
454.533000
 20
355.384100
  0
VERTEX
  8
TopCopper
 10
454.533000
 20
354.749100
  0
SEQEND
  0
POLYLINE
  8
TopCopper
 66
1
 10
0.000000
 20
0.000000
 30
0.000000
 40
0.635000
 41
0.635000
 70
1
  0
VERTEX
  8
TopCopper
 10
373.888000
 20
355.384100
  0
VERTEX
  8
TopCopper
 10
373.888000
 20
356.019100
  0
VERTEX
  8
TopCopper
 10
373.253000
 20
356.019100
  0
VERTEX
  8
TopCopper
 10
373.253000
 20
355.384100
  0
SEQEND
  0
POLYLINE
  8
TopCopper
 66
1
 10
0.000000
 20
0.000000
 30
0.000000
 40
0.635000
 41
0.635000
 70
1
  0
VERTEX
  8
TopCopper
 10
384.733800
 20
363.664500
  0
VERTEX
  8
TopCopper
 10
384.733800
 20
364.299500
  0
VERTEX
  8
TopCopper
 10
384.098800
 20
364.299500
  0
VERTEX
  8
TopCopper
 10
384.098800
 20
363.664500
  0
SEQEND
  0
POLYLINE
  8
TopCopper
 66
1
 10
0.000000
 20
0.000000
 30
0.000000
 40
0.635000
 41
0.635000
 70
1
  0
VERTEX
  8
TopCopper
 10
369.468400
 20
371.868700
  0
VERTEX
  8
TopCopper
 10
369.468400
 20
372.503700
  0
VERTEX
  8
TopCopper
 10
368.833400
 20
372.503700
  0
VERTEX
  8
TopCopper
 10
368.833400
 20
371.868700
  0
SEQEND
  0
POLYLINE
  8
TopCopper
 66
1
 10
0.000000
 20
0.000000
 30
0.000000
 40
0.635000
 41
0.635000
 70
1
  0
VERTEX
  8
TopCopper
 10
355.219000
 20
373.926100
  0
VERTEX
  8
TopCopper
 10
355.219000
 20
374.561100
  0
VERTEX
  8
TopCopper
 10
354.584000
 20
374.561100
  0
VERTEX
  8
TopCopper
 10
354.584000
 20
373.926100
  0
SEQEND
  0
POLYLINE
  8
TopCopper
 66
1
 10
0.000000
 20
0.000000
 30
0.000000
 40
0.825500
 41
0.825500
 70
1
  0
VERTEX
  8
TopCopper
 42
1.000000
 10
466.959950
 20
362.686600
  0
VERTEX
  8
TopCopper
 42
1.000000
 10
467.785450
 20
362.686600
  0
SEQEND
  0
POLYLINE
  8
TopCopper
 66
1
 10
0.000000
 20
0.000000
 30
0.000000
 40
0.825500
 41
0.825500
 70
1
  0
VERTEX
  8
TopCopper
 42
1.000000
 10
466.959950
 20
370.306600
  0
VERTEX
  8
TopCopper
 42
1.000000
 10
467.785450
 20
370.306600
  0
SEQEND
  0
POLYLINE
  8
TopCopper
 66
1
 10
0.000000
 20
0.000000
 30
0.000000
 40
0.825500
 41
0.825500
 70
1
  0
VERTEX
  8
TopCopper
 42
1.000000
 10
466.959950
 20
365.226600
  0
VERTEX
  8
TopCopper
 42
1.000000
 10
467.785450
 20
365.226600
  0
SEQEND
  0
POLYLINE
  8
TopCopper
 66
1
 10
0.000000
 20
0.000000
 30
0.000000
 40
0.825500
 41
0.825500
 70
1
  0
VERTEX
  8
TopCopper
 42
1.000000
 10
477.119950
 20
367.766600
  0
VERTEX
  8
TopCopper
 42
1.000000
 10
477.945450
 20
367.766600
  0
SEQEND
  0
POLYLINE
  8
TopCopper
 66
1
 10
0.000000
 20
0.000000
 30
0.000000
 40
0.825500
 41
0.825500
 70
1
  0
VERTEX
  8
TopCopper
 42
1.000000
 10
477.119950
 20
370.306600
  0
VERTEX
  8
TopCopper
 42
1.000000
 10
477.945450
 20
370.306600
  0
SEQEND
  0
POLYLINE
  8
TopCopper
 66
1
 10
0.000000
 20
0.000000
 30
0.000000
 40
0.825500
 41
0.825500
 70
1
  0
VERTEX
  8
TopCopper
 42
1.000000
 10
477.119950
 20
362.686600
  0
VERTEX
  8
TopCopper
 42
1.000000
 10
477.945450
 20
362.686600
  0
SEQEND
  0
POLYLINE
  8
TopCopper
 66
1
 10
0.000000
 20
0.000000
 30
0.000000
 40
0.825500
 41
0.825500
 70
1
  0
VERTEX
  8
TopCopper
 42
1.000000
 10
463.149950
 20
360.146600
  0
VERTEX
  8
TopCopper
 42
1.000000
 10
463.975450
 20
360.146600
  0
SEQEND
  0
POLYLINE
  8
TopCopper
 66
1
 10
0.000000
 20
0.000000
 30
0.000000
 40
0.825500
 41
0.825500
 70
1
  0
VERTEX
  8
TopCopper
 42
1.000000
 10
470.769950
 20
360.146600
  0
VERTEX
  8
TopCopper
 42
1.000000
 10
471.595450
 20
360.146600
  0
SEQEND
  0
POLYLINE
  8
TopCopper
 66
1
 10
0.000000
 20
0.000000
 30
0.000000
 40
0.825500
 41
0.825500
 70
1
  0
VERTEX
  8
TopCopper
 42
1.000000
 10
465.689950
 20
360.146600
  0
VERTEX
  8
TopCopper
 42
1.000000
 10
466.515450
 20
360.146600
  0
SEQEND
  0
POLYLINE
  8
TopCopper
 66
1
 10
0.000000
 20
0.000000
 30
0.000000
 40
0.825500
 41
0.825500
 70
1
  0
VERTEX
  8
TopCopper
 42
1.000000
 10
468.229950
 20
349.986600
  0
VERTEX
  8
TopCopper
 42
1.000000
 10
469.055450
 20
349.986600
  0
SEQEND
  0
POLYLINE
  8
TopCopper
 66
1
 10
0.000000
 20
0.000000
 30
0.000000
 40
0.825500
 41
0.825500
 70
1
  0
VERTEX
  8
TopCopper
 42
1.000000
 10
470.769950
 20
349.986600
  0
VERTEX
  8
TopCopper
 42
1.000000
 10
471.595450
 20
349.986600
  0
SEQEND
  0
POLYLINE
  8
TopCopper
 66
1
 10
0.000000
 20
0.000000
 30
0.000000
 40
0.825500
 41
0.825500
 70
1
  0
VERTEX
  8
TopCopper
 42
1.000000
 10
463.149950
 20
349.986600
  0
VERTEX
  8
TopCopper
 42
1.000000
 10
463.975450
 20
349.986600
  0
SEQEND
  0
POLYLINE
  8
TopCopper
 66
1
 10
0.000000
 20
0.000000
 30
0.000000
 40
0.825500
 41
0.825500
 70
1
  0
VERTEX
  8
TopCopper
 42
1.000000
 10
480.929950
 20
349.986600
  0
VERTEX
  8
TopCopper
 42
1.000000
 10
481.755450
 20
349.986600
  0
SEQEND
  0
POLYLINE
  8
TopCopper
 66
1
 10
0.000000
 20
0.000000
 30
0.000000
 40
0.825500
 41
0.825500
 70
1
  0
VERTEX
  8
TopCopper
 42
1.000000
 10
473.309950
 20
349.986600
  0
VERTEX
  8
TopCopper
 42
1.000000
 10
474.135450
 20
349.986600
  0
SEQEND
  0
POLYLINE
  8
TopCopper
 66
1
 10
0.000000
 20
0.000000
 30
0.000000
 40
0.825500
 41
0.825500
 70
1
  0
VERTEX
  8
TopCopper
 42
1.000000
 10
478.389950
 20
349.986600
  0
VERTEX
  8
TopCopper
 42
1.000000
 10
479.215450
 20
349.986600
  0
SEQEND
  0
POLYLINE
  8
TopCopper
 66
1
 10
0.000000
 20
0.000000
 30
0.000000
 40
0.825500
 41
0.825500
 70
1
  0
VERTEX
  8
TopCopper
 42
1.000000
 10
475.849950
 20
360.146600
  0
VERTEX
  8
TopCopper
 42
1.000000
 10
476.675450
 20
360.146600
  0
SEQEND
  0
POLYLINE
  8
TopCopper
 66
1
 10
0.000000
 20
0.000000
 30
0.000000
 40
0.825500
 41
0.825500
 70
1
  0
VERTEX
  8
TopCopper
 42
1.000000
 10
473.309950
 20
360.146600
  0
VERTEX
  8
TopCopper
 42
1.000000
 10
474.135450
 20
360.146600
  0
SEQEND
  0
POLYLINE
  8
TopCopper
 66
1
 10
0.000000
 20
0.000000
 30
0.000000
 40
0.825500
 41
0.825500
 70
1
  0
VERTEX
  8
TopCopper
 42
1.000000
 10
480.929950
 20
360.146600
  0
VERTEX
  8
TopCopper
 42
1.000000
 10
481.755450
 20
360.146600
  0
SEQEND
  0
POLYLINE
  8
TopCopper
 66
1
 10
0.000000
 20
0.000000
 30
0.000000
 40
0.825500
 41
0.825500
 70
1
  0
VERTEX
  8
TopCopper
 42
1.000000
 10
466.959950
 20
339.826600
  0
VERTEX
  8
TopCopper
 42
1.000000
 10
467.785450
 20
339.826600
  0
SEQEND
  0
POLYLINE
  8
TopCopper
 66
1
 10
0.000000
 20
0.000000
 30
0.000000
 40
0.825500
 41
0.825500
 70
1
  0
VERTEX
  8
TopCopper
 42
1.000000
 10
466.959950
 20
347.446600
  0
VERTEX
  8
TopCopper
 42
1.000000
 10
467.785450
 20
347.446600
  0
SEQEND
  0
POLYLINE
  8
TopCopper
 66
1
 10
0.000000
 20
0.000000
 30
0.000000
 40
0.825500
 41
0.825500
 70
1
  0
VERTEX
  8
TopCopper
 42
1.000000
 10
466.959950
 20
342.366600
  0
VERTEX
  8
TopCopper
 42
1.000000
 10
467.785450
 20
342.366600
  0
SEQEND
  0
POLYLINE
  8
TopCopper
 66
1
 10
0.000000
 20
0.000000
 30
0.000000
 40
0.825500
 41
0.825500
 70
1
  0
VERTEX
  8
TopCopper
 42
1.000000
 10
477.119950
 20
344.906600
  0
VERTEX
  8
TopCopper
 42
1.000000
 10
477.945450
 20
344.906600
  0
SEQEND
  0
POLYLINE
  8
TopCopper
 66
1
 10
0.000000
 20
0.000000
 30
0.000000
 40
0.825500
 41
0.825500
 70
1
  0
VERTEX
  8
TopCopper
 42
1.000000
 10
477.119950
 20
347.446600
  0
VERTEX
  8
TopCopper
 42
1.000000
 10
477.945450
 20
347.446600
  0
SEQEND
  0
POLYLINE
  8
TopCopper
 66
1
 10
0.000000
 20
0.000000
 30
0.000000
 40
0.825500
 41
0.825500
 70
1
  0
VERTEX
  8
TopCopper
 42
1.000000
 10
477.119950
 20
339.826600
  0
VERTEX
  8
TopCopper
 42
1.000000
 10
477.945450
 20
339.826600
  0
SEQEND
  0
POLYLINE
  8
TopCopper
 66
1
 10
0.000000
 20
0.000000
 30
0.000000
 40
0.952500
 41
0.952500
 70
1
  0
VERTEX
  8
TopCopper
 42
1.000000
 10
341.928450
 20
343.585800
  0
VERTEX
  8
TopCopper
 42
1.000000
 10
342.880950
 20
343.585800
  0
SEQEND
  0
POLYLINE
  8
TopCopper
 66
1
 10
0.000000
 20
0.000000
 30
0.000000
 40
0.952500
 41
0.952500
 70
1
  0
VERTEX
  8
TopCopper
 42
1.000000
 10
346.932250
 20
343.585800
  0
VERTEX
  8
TopCopper
 42
1.000000
 10
347.884750
 20
343.585800
  0
SEQEND
  0
POLYLINE
  8
TopCopper
 66
1
 10
0.000000
 20
0.000000
 30
0.000000
 40
0.952500
 41
0.952500
 70
1
  0
VERTEX
  8
TopCopper
 42
1.000000
 10
341.928450
 20
358.089200
  0
VERTEX
  8
TopCopper
 42
1.000000
 10
342.880950
 20
358.089200
  0
SEQEND
  0
POLYLINE
  8
TopCopper
 66
1
 10
0.000000
 20
0.000000
 30
0.000000
 40
0.952500
 41
0.952500
 70
1
  0
VERTEX
  8
TopCopper
 42
1.000000
 10
344.417650
 20
358.089200
  0
VERTEX
  8
TopCopper
 42
1.000000
 10
345.370150
 20
358.089200
  0
SEQEND
  0
POLYLINE
  8
TopCopper
 66
1
 10
0.000000
 20
0.000000
 30
0.000000
 40
0.952500
 41
0.952500
 70
1
  0
VERTEX
  8
TopCopper
 42
1.000000
 10
346.932250
 20
358.089200
  0
VERTEX
  8
TopCopper
 42
1.000000
 10
347.884750
 20
358.089200
  0
SEQEND
  0
POLYLINE
  8
TopCopper
 66
1
 10
0.000000
 20
0.000000
 30
0.000000
 40
1.460500
 41
1.460500
 70
1
  0
VERTEX
  8
TopCopper
 42
1.000000
 10
338.169250
 20
350.596200
  0
VERTEX
  8
TopCopper
 42
1.000000
 10
339.629750
 20
350.596200
  0
SEQEND
  0
POLYLINE
  8
TopCopper
 66
1
 10
0.000000
 20
0.000000
 30
0.000000
 40
1.460500
 41
1.460500
 70
1
  0
VERTEX
  8
TopCopper
 42
1.000000
 10
350.183450
 20
350.596200
  0
VERTEX
  8
TopCopper
 42
1.000000
 10
351.643950
 20
350.596200
  0
SEQEND
  0
POLYLINE
  8
TopCopper
 66
1
 10
0.000000
 20
0.000000
 30
0.000000
 40
2.540000
 41
2.540000
 70
1
  0
VERTEX
  8
TopCopper
 42
1.000000
 10
328.129900
 20
372.110000
  0
VERTEX
  8
TopCopper
 42
1.000000
 10
330.669900
 20
372.110000
  0
SEQEND
  0
POLYLINE
  8
TopCopper
 66
1
 10
0.000000
 20
0.000000
 30
0.000000
 40
2.540000
 41
2.540000
 70
1
  0
VERTEX
  8
TopCopper
 42
1.000000
 10
328.129900
 20
339.090000
  0
VERTEX
  8
TopCopper
 42
1.000000
 10
330.669900
 20
339.090000
  0
SEQEND
  0
POLYLINE
  8
TopCopper
 66
1
 10
0.000000
 20
0.000000
 30
0.000000
 40
2.540000
 41
2.540000
 70
1
  0
VERTEX
  8
TopCopper
 42
1.000000
 10
482.130100
 20
372.110000
  0
VERTEX
  8
TopCopper
 42
1.000000
 10
484.670100
 20
372.110000
  0
SEQEND
  0
POLYLINE
  8
TopCopper
 66
1
 10
0.000000
 20
0.000000
 30
0.000000
 40
2.540000
 41
2.540000
 70
1
  0
VERTEX
  8
TopCopper
 42
1.000000
 10
482.130100
 20
339.090000
  0
VERTEX
  8
TopCopper
 42
1.000000
 10
484.670100
 20
339.090000
  0
SEQEND
  0
POLYLINE
  8
BottomCopper
 66
1
 10
0.000000
 20
0.000000
 30
0.000000
 40
0.190500
 41
0.190500
 70
1
  0
VERTEX
  8
BottomCopper
 10
420.960550
 20
361.397550
  0
VERTEX
  8
BottomCopper
 10
420.960550
 20
362.350050
  0
VERTEX
  8
BottomCopper
 10
420.770050
 20
362.350050
  0
VERTEX
  8
BottomCopper
 10
420.770050
 20
361.397550
  0
SEQEND
  0
POLYLINE
  8
BottomCopper
 66
1
 10
0.000000
 20
0.000000
 30
0.000000
 40
0.190500
 41
0.190500
 70
1
  0
VERTEX
  8
BottomCopper
 10
421.620950
 20
361.397550
  0
VERTEX
  8
BottomCopper
 10
421.620950
 20
362.350050
  0
VERTEX
  8
BottomCopper
 10
421.430450
 20
362.350050
  0
VERTEX
  8
BottomCopper
 10
421.430450
 20
361.397550
  0
SEQEND
  0
POLYLINE
  8
BottomCopper
 66
1
 10
0.000000
 20
0.000000
 30
0.000000
 40
0.190500
 41
0.190500
 70
1
  0
VERTEX
  8
BottomCopper
 10
422.255950
 20
361.397550
  0
VERTEX
  8
BottomCopper
 10
422.255950
 20
362.350050
  0
VERTEX
  8
BottomCopper
 10
422.065450
 20
362.350050
  0
VERTEX
  8
BottomCopper
 10
422.065450
 20
361.397550
  0
SEQEND
  0
POLYLINE
  8
BottomCopper
 66
1
 10
0.000000
 20
0.000000
 30
0.000000
 40
0.190500
 41
0.190500
 70
1
  0
VERTEX
  8
BottomCopper
 10
422.916350
 20
361.397550
  0
VERTEX
  8
BottomCopper
 10
422.916350
 20
362.350050
  0
VERTEX
  8
BottomCopper
 10
422.725850
 20
362.350050
  0
VERTEX
  8
BottomCopper
 10
422.725850
 20
361.397550
  0
SEQEND
  0
POLYLINE
  8
BottomCopper
 66
1
 10
0.000000
 20
0.000000
 30
0.000000
 40
0.190500
 41
0.190500
 70
1
  0
VERTEX
  8
BottomCopper
 10
423.551350
 20
361.397550
  0
VERTEX
  8
BottomCopper
 10
423.551350
 20
362.350050
  0
VERTEX
  8
BottomCopper
 10
423.360850
 20
362.350050
  0
VERTEX
  8
BottomCopper
 10
423.360850
 20
361.397550
  0
SEQEND
  0
POLYLINE
  8
BottomCopper
 66
1
 10
0.000000
 20
0.000000
 30
0.000000
 40
0.190500
 41
0.190500
 70
1
  0
VERTEX
  8
BottomCopper
 10
424.211750
 20
361.397550
  0
VERTEX
  8
BottomCopper
 10
424.211750
 20
362.350050
  0
VERTEX
  8
BottomCopper
 10
424.021250
 20
362.350050
  0
VERTEX
  8
BottomCopper
 10
424.021250
 20
361.397550
  0
SEQEND
  0
POLYLINE
  8
BottomCopper
 66
1
 10
0.000000
 20
0.000000
 30
0.000000
 40
0.190500
 41
0.190500
 70
1
  0
VERTEX
  8
BottomCopper
 10
424.872150
 20
361.397550
  0
VERTEX
  8
BottomCopper
 10
424.872150
 20
362.350050
  0
VERTEX
  8
BottomCopper
 10
424.681650
 20
362.350050
  0
VERTEX
  8
BottomCopper
 10
424.681650
 20
361.397550
  0
SEQEND
  0
POLYLINE
  8
BottomCopper
 66
1
 10
0.000000
 20
0.000000
 30
0.000000
 40
0.190500
 41
0.190500
 70
1
  0
VERTEX
  8
BottomCopper
 10
425.507150
 20
361.397550
  0
VERTEX
  8
BottomCopper
 10
425.507150
 20
362.350050
  0
VERTEX
  8
BottomCopper
 10
425.316650
 20
362.350050
  0
VERTEX
  8
BottomCopper
 10
425.316650
 20
361.397550
  0
SEQEND
  0
POLYLINE
  8
BottomCopper
 66
1
 10
0.000000
 20
0.000000
 30
0.000000
 40
0.190500
 41
0.190500
 70
1
  0
VERTEX
  8
BottomCopper
 10
426.167550
 20
361.397550
  0
VERTEX
  8
BottomCopper
 10
426.167550
 20
362.350050
  0
VERTEX
  8
BottomCopper
 10
425.977050
 20
362.350050
  0
VERTEX
  8
BottomCopper
 10
425.977050
 20
361.397550
  0
SEQEND
  0
POLYLINE
  8
BottomCopper
 66
1
 10
0.000000
 20
0.000000
 30
0.000000
 40
0.190500
 41
0.190500
 70
1
  0
VERTEX
  8
BottomCopper
 10
426.802550
 20
361.397550
  0
VERTEX
  8
BottomCopper
 10
426.802550
 20
362.350050
  0
VERTEX
  8
BottomCopper
 10
426.612050
 20
362.350050
  0
VERTEX
  8
BottomCopper
 10
426.612050
 20
361.397550
  0
SEQEND
  0
POLYLINE
  8
BottomCopper
 66
1
 10
0.000000
 20
0.000000
 30
0.000000
 40
0.190500
 41
0.190500
 70
1
  0
VERTEX
  8
BottomCopper
 10
426.802550
 20
355.403150
  0
VERTEX
  8
BottomCopper
 10
426.802550
 20
356.355650
  0
VERTEX
  8
BottomCopper
 10
426.612050
 20
356.355650
  0
VERTEX
  8
BottomCopper
 10
426.612050
 20
355.403150
  0
SEQEND
  0
POLYLINE
  8
BottomCopper
 66
1
 10
0.000000
 20
0.000000
 30
0.000000
 40
0.190500
 41
0.190500
 70
1
  0
VERTEX
  8
BottomCopper
 10
426.167550
 20
355.403150
  0
VERTEX
  8
BottomCopper
 10
426.167550
 20
356.355650
  0
VERTEX
  8
BottomCopper
 10
425.977050
 20
356.355650
  0
VERTEX
  8
BottomCopper
 10
425.977050
 20
355.403150
  0
SEQEND
  0
POLYLINE
  8
BottomCopper
 66
1
 10
0.000000
 20
0.000000
 30
0.000000
 40
0.190500
 41
0.190500
 70
1
  0
VERTEX
  8
BottomCopper
 10
425.507150
 20
355.403150
  0
VERTEX
  8
BottomCopper
 10
425.507150
 20
356.355650
  0
VERTEX
  8
BottomCopper
 10
425.316650
 20
356.355650
  0
VERTEX
  8
BottomCopper
 10
425.316650
 20
355.403150
  0
SEQEND
  0
POLYLINE
  8
BottomCopper
 66
1
 10
0.000000
 20
0.000000
 30
0.000000
 40
0.190500
 41
0.190500
 70
1
  0
VERTEX
  8
BottomCopper
 10
424.872150
 20
355.403150
  0
VERTEX
  8
BottomCopper
 10
424.872150
 20
356.355650
  0
VERTEX
  8
BottomCopper
 10
424.681650
 20
356.355650
  0
VERTEX
  8
BottomCopper
 10
424.681650
 20
355.403150
  0
SEQEND
  0
POLYLINE
  8
BottomCopper
 66
1
 10
0.000000
 20
0.000000
 30
0.000000
 40
0.190500
 41
0.190500
 70
1
  0
VERTEX
  8
BottomCopper
 10
424.211750
 20
355.403150
  0
VERTEX
  8
BottomCopper
 10
424.211750
 20
356.355650
  0
VERTEX
  8
BottomCopper
 10
424.021250
 20
356.355650
  0
VERTEX
  8
BottomCopper
 10
424.021250
 20
355.403150
  0
SEQEND
  0
POLYLINE
  8
BottomCopper
 66
1
 10
0.000000
 20
0.000000
 30
0.000000
 40
0.190500
 41
0.190500
 70
1
  0
VERTEX
  8
BottomCopper
 10
423.551350
 20
355.403150
  0
VERTEX
  8
BottomCopper
 10
423.551350
 20
356.355650
  0
VERTEX
  8
BottomCopper
 10
423.360850
 20
356.355650
  0
VERTEX
  8
BottomCopper
 10
423.360850
 20
355.403150
  0
SEQEND
  0
POLYLINE
  8
BottomCopper
 66
1
 10
0.000000
 20
0.000000
 30
0.000000
 40
0.190500
 41
0.190500
 70
1
  0
VERTEX
  8
BottomCopper
 10
422.916350
 20
355.403150
  0
VERTEX
  8
BottomCopper
 10
422.916350
 20
356.355650
  0
VERTEX
  8
BottomCopper
 10
422.725850
 20
356.355650
  0
VERTEX
  8
BottomCopper
 10
422.725850
 20
355.403150
  0
SEQEND
  0
POLYLINE
  8
BottomCopper
 66
1
 10
0.000000
 20
0.000000
 30
0.000000
 40
0.190500
 41
0.190500
 70
1
  0
VERTEX
  8
BottomCopper
 10
422.255950
 20
355.403150
  0
VERTEX
  8
BottomCopper
 10
422.255950
 20
356.355650
  0
VERTEX
  8
BottomCopper
 10
422.065450
 20
356.355650
  0
VERTEX
  8
BottomCopper
 10
422.065450
 20
355.403150
  0
SEQEND
  0
POLYLINE
  8
BottomCopper
 66
1
 10
0.000000
 20
0.000000
 30
0.000000
 40
0.190500
 41
0.190500
 70
1
  0
VERTEX
  8
BottomCopper
 10
421.620950
 20
355.403150
  0
VERTEX
  8
BottomCopper
 10
421.620950
 20
356.355650
  0
VERTEX
  8
BottomCopper
 10
421.430450
 20
356.355650
  0
VERTEX
  8
BottomCopper
 10
421.430450
 20
355.403150
  0
SEQEND
  0
POLYLINE
  8
BottomCopper
 66
1
 10
0.000000
 20
0.000000
 30
0.000000
 40
0.190500
 41
0.190500
 70
1
  0
VERTEX
  8
BottomCopper
 10
420.960550
 20
355.403150
  0
VERTEX
  8
BottomCopper
 10
420.960550
 20
356.355650
  0
VERTEX
  8
BottomCopper
 10
420.770050
 20
356.355650
  0
VERTEX
  8
BottomCopper
 10
420.770050
 20
355.403150
  0
SEQEND
  0
POLYLINE
  8
BottomCopper
 66
1
 10
0.000000
 20
0.000000
 30
0.000000
 40
0.762000
 41
0.762000
 70
1
  0
VERTEX
  8
BottomCopper
 42
1.000000
 10
455.180700
 20
337.591400
  0
VERTEX
  8
BottomCopper
 42
1.000000
 10
455.942700
 20
337.591400
  0
SEQEND
  0
POLYLINE
  8
BottomCopper
 66
1
 10
0.000000
 20
0.000000
 30
0.000000
 40
0.762000
 41
0.762000
 70
1
  0
VERTEX
  8
BottomCopper
 42
1.000000
 10
453.174100
 20
337.591400
  0
VERTEX
  8
BottomCopper
 42
1.000000
 10
453.936100
 20
337.591400
  0
SEQEND
  0
POLYLINE
  8
BottomCopper
 66
1
 10
0.000000
 20
0.000000
 30
0.000000
 40
0.762000
 41
0.762000
 70
1
  0
VERTEX
  8
BottomCopper
 42
1.000000
 10
451.167500
 20
337.591400
  0
VERTEX
  8
BottomCopper
 42
1.000000
 10
451.929500
 20
337.591400
  0
SEQEND
  0
POLYLINE
  8
BottomCopper
 66
1
 10
0.000000
 20
0.000000
 30
0.000000
 40
0.762000
 41
0.762000
 70
1
  0
VERTEX
  8
BottomCopper
 42
1.000000
 10
405.168100
 20
337.591400
  0
VERTEX
  8
BottomCopper
 42
1.000000
 10
405.930100
 20
337.591400
  0
SEQEND
  0
POLYLINE
  8
BottomCopper
 66
1
 10
0.000000
 20
0.000000
 30
0.000000
 40
0.762000
 41
0.762000
 70
1
  0
VERTEX
  8
BottomCopper
 42
1.000000
 10
403.186900
 20
337.591400
  0
VERTEX
  8
BottomCopper
 42
1.000000
 10
403.948900
 20
337.591400
  0
SEQEND
  0
POLYLINE
  8
BottomCopper
 66
1
 10
0.000000
 20
0.000000
 30
0.000000
 40
0.762000
 41
0.762000
 70
1
  0
VERTEX
  8
BottomCopper
 42
1.000000
 10
401.180300
 20
337.591400
  0
VERTEX
  8
BottomCopper
 42
1.000000
 10
401.942300
 20
337.591400
  0
SEQEND
  0
POLYLINE
  8
BottomCopper
 66
1
 10
0.000000
 20
0.000000
 30
0.000000
 40
0.762000
 41
0.762000
 70
1
  0
VERTEX
  8
BottomCopper
 42
1.000000
 10
399.173700
 20
337.591400
  0
VERTEX
  8
BottomCopper
 42
1.000000
 10
399.935700
 20
337.591400
  0
SEQEND
  0
POLYLINE
  8
BottomCopper
 66
1
 10
0.000000
 20
0.000000
 30
0.000000
 40
0.762000
 41
0.762000
 70
1
  0
VERTEX
  8
BottomCopper
 42
1.000000
 10
397.167100
 20
337.591400
  0
VERTEX
  8
BottomCopper
 42
1.000000
 10
397.929100
 20
337.591400
  0
SEQEND
  0
POLYLINE
  8
BottomCopper
 66
1
 10
0.000000
 20
0.000000
 30
0.000000
 40
0.762000
 41
0.762000
 70
1
  0
VERTEX
  8
BottomCopper
 42
1.000000
 10
395.185900
 20
337.591400
  0
VERTEX
  8
BottomCopper
 42
1.000000
 10
395.947900
 20
337.591400
  0
SEQEND
  0
POLYLINE
  8
BottomCopper
 66
1
 10
0.000000
 20
0.000000
 30
0.000000
 40
0.762000
 41
0.762000
 70
1
  0
VERTEX
  8
BottomCopper
 42
1.000000
 10
393.179300
 20
337.591400
  0
VERTEX
  8
BottomCopper
 42
1.000000
 10
393.941300
 20
337.591400
  0
SEQEND
  0
POLYLINE
  8
BottomCopper
 66
1
 10
0.000000
 20
0.000000
 30
0.000000
 40
0.762000
 41
0.762000
 70
1
  0
VERTEX
  8
BottomCopper
 42
1.000000
 10
391.172700
 20
337.591400
  0
VERTEX
  8
BottomCopper
 42
1.000000
 10
391.934700
 20
337.591400
  0
SEQEND
  0
POLYLINE
  8
BottomCopper
 66
1
 10
0.000000
 20
0.000000
 30
0.000000
 40
0.762000
 41
0.762000
 70
1
  0
VERTEX
  8
BottomCopper
 42
1.000000
 10
389.166100
 20
337.591400
  0
VERTEX
  8
BottomCopper
 42
1.000000
 10
389.928100
 20
337.591400
  0
SEQEND
  0
POLYLINE
  8
BottomCopper
 66
1
 10
0.000000
 20
0.000000
 30
0.000000
 40
0.762000
 41
0.762000
 70
1
  0
VERTEX
  8
BottomCopper
 42
1.000000
 10
387.184900
 20
337.591400
  0
VERTEX
  8
BottomCopper
 42
1.000000
 10
387.946900
 20
337.591400
  0
SEQEND
  0
POLYLINE
  8
BottomCopper
 66
1
 10
0.000000
 20
0.000000
 30
0.000000
 40
0.762000
 41
0.762000
 70
1
  0
VERTEX
  8
BottomCopper
 42
1.000000
 10
385.178300
 20
337.591400
  0
VERTEX
  8
BottomCopper
 42
1.000000
 10
385.940300
 20
337.591400
  0
SEQEND
  0
POLYLINE
  8
BottomCopper
 66
1
 10
0.000000
 20
0.000000
 30
0.000000
 40
0.762000
 41
0.762000
 70
1
  0
VERTEX
  8
BottomCopper
 42
1.000000
 10
383.171700
 20
337.591400
  0
VERTEX
  8
BottomCopper
 42
1.000000
 10
383.933700
 20
337.591400
  0
SEQEND
  0
POLYLINE
  8
BottomCopper
 66
1
 10
0.000000
 20
0.000000
 30
0.000000
 40
0.762000
 41
0.762000
 70
1
  0
VERTEX
  8
BottomCopper
 42
1.000000
 10
381.165100
 20
337.591400
  0
VERTEX
  8
BottomCopper
 42
1.000000
 10
381.927100
 20
337.591400
  0
SEQEND
  0
POLYLINE
  8
BottomCopper
 66
1
 10
0.000000
 20
0.000000
 30
0.000000
 40
0.762000
 41
0.762000
 70
1
  0
VERTEX
  8
BottomCopper
 42
1.000000
 10
379.183900
 20
337.591400
  0
VERTEX
  8
BottomCopper
 42
1.000000
 10
379.945900
 20
337.591400
  0
SEQEND
  0
POLYLINE
  8
BottomCopper
 66
1
 10
0.000000
 20
0.000000
 30
0.000000
 40
0.762000
 41
0.762000
 70
1
  0
VERTEX
  8
BottomCopper
 42
1.000000
 10
377.177300
 20
337.591400
  0
VERTEX
  8
BottomCopper
 42
1.000000
 10
377.939300
 20
337.591400
  0
SEQEND
  0
POLYLINE
  8
BottomCopper
 66
1
 10
0.000000
 20
0.000000
 30
0.000000
 40
0.762000
 41
0.762000
 70
1
  0
VERTEX
  8
BottomCopper
 42
1.000000
 10
375.170700
 20
337.591400
  0
VERTEX
  8
BottomCopper
 42
1.000000
 10
375.932700
 20
337.591400
  0
SEQEND
  0
POLYLINE
  8
BottomCopper
 66
1
 10
0.000000
 20
0.000000
 30
0.000000
 40
0.762000
 41
0.762000
 70
1
  0
VERTEX
  8
BottomCopper
 42
1.000000
 10
373.164100
 20
337.591400
  0
VERTEX
  8
BottomCopper
 42
1.000000
 10
373.926100
 20
337.591400
  0
SEQEND
  0
POLYLINE
  8
BottomCopper
 66
1
 10
0.000000
 20
0.000000
 30
0.000000
 40
0.762000
 41
0.762000
 70
1
  0
VERTEX
  8
BottomCopper
 42
1.000000
 10
371.182900
 20
337.591400
  0
VERTEX
  8
BottomCopper
 42
1.000000
 10
371.944900
 20
337.591400
  0
SEQEND
  0
POLYLINE
  8
BottomCopper
 66
1
 10
0.000000
 20
0.000000
 30
0.000000
 40
0.762000
 41
0.762000
 70
1
  0
VERTEX
  8
BottomCopper
 42
1.000000
 10
369.176300
 20
337.591400
  0
VERTEX
  8
BottomCopper
 42
1.000000
 10
369.938300
 20
337.591400
  0
SEQEND
  0
POLYLINE
  8
BottomCopper
 66
1
 10
0.000000
 20
0.000000
 30
0.000000
 40
0.762000
 41
0.762000
 70
1
  0
VERTEX
  8
BottomCopper
 42
1.000000
 10
367.169700
 20
337.591400
  0
VERTEX
  8
BottomCopper
 42
1.000000
 10
367.931700
 20
337.591400
  0
SEQEND
  0
POLYLINE
  8
BottomCopper
 66
1
 10
0.000000
 20
0.000000
 30
0.000000
 40
0.762000
 41
0.762000
 70
1
  0
VERTEX
  8
BottomCopper
 42
1.000000
 10
361.175300
 20
337.591400
  0
VERTEX
  8
BottomCopper
 42
1.000000
 10
361.937300
 20
337.591400
  0
SEQEND
  0
POLYLINE
  8
BottomCopper
 66
1
 10
0.000000
 20
0.000000
 30
0.000000
 40
0.762000
 41
0.762000
 70
1
  0
VERTEX
  8
BottomCopper
 42
1.000000
 10
359.168700
 20
337.591400
  0
VERTEX
  8
BottomCopper
 42
1.000000
 10
359.930700
 20
337.591400
  0
SEQEND
  0
POLYLINE
  8
BottomCopper
 66
1
 10
0.000000
 20
0.000000
 30
0.000000
 40
0.762000
 41
0.762000
 70
1
  0
VERTEX
  8
BottomCopper
 42
1.000000
 10
357.187500
 20
337.591400
  0
VERTEX
  8
BottomCopper
 42
1.000000
 10
357.949500
 20
337.591400
  0
SEQEND
  0
POLYLINE
  8
BottomCopper
 66
1
 10
0.000000
 20
0.000000
 30
0.000000
 40
0.317500
 41
0.317500
 70
1
  0
VERTEX
  8
BottomCopper
 10
328.555350
 20
355.492050
  0
VERTEX
  8
BottomCopper
 10
328.555350
 20
355.809550
  0
VERTEX
  8
BottomCopper
 10
327.602850
 20
355.809550
  0
VERTEX
  8
BottomCopper
 10
327.602850
 20
355.492050
  0
SEQEND
  0
POLYLINE
  8
BottomCopper
 66
1
 10
0.000000
 20
0.000000
 30
0.000000
 40
0.317500
 41
0.317500
 70
1
  0
VERTEX
  8
BottomCopper
 10
328.555350
 20
356.762050
  0
VERTEX
  8
BottomCopper
 10
328.555350
 20
357.079550
  0
VERTEX
  8
BottomCopper
 10
327.602850
 20
357.079550
  0
VERTEX
  8
BottomCopper
 10
327.602850
 20
356.762050
  0
SEQEND
  0
POLYLINE
  8
BottomCopper
 66
1
 10
0.000000
 20
0.000000
 30
0.000000
 40
0.317500
 41
0.317500
 70
1
  0
VERTEX
  8
BottomCopper
 10
328.555350
 20
358.032050
  0
VERTEX
  8
BottomCopper
 10
328.555350
 20
358.349550
  0
VERTEX
  8
BottomCopper
 10
327.602850
 20
358.349550
  0
VERTEX
  8
BottomCopper
 10
327.602850
 20
358.032050
  0
SEQEND
  0
POLYLINE
  8
BottomCopper
 66
1
 10
0.000000
 20
0.000000
 30
0.000000
 40
0.317500
 41
0.317500
 70
1
  0
VERTEX
  8
BottomCopper
 10
328.555350
 20
359.302050
  0
VERTEX
  8
BottomCopper
 10
328.555350
 20
359.619550
  0
VERTEX
  8
BottomCopper
 10
327.602850
 20
359.619550
  0
VERTEX
  8
BottomCopper
 10
327.602850
 20
359.302050
  0
SEQEND
  0
POLYLINE
  8
BottomCopper
 66
1
 10
0.000000
 20
0.000000
 30
0.000000
 40
0.317500
 41
0.317500
 70
1
  0
VERTEX
  8
BottomCopper
 10
328.555350
 20
360.572050
  0
VERTEX
  8
BottomCopper
 10
328.555350
 20
360.889550
  0
VERTEX
  8
BottomCopper
 10
327.602850
 20
360.889550
  0
VERTEX
  8
BottomCopper
 10
327.602850
 20
360.572050
  0
SEQEND
  0
POLYLINE
  8
BottomCopper
 66
1
 10
0.000000
 20
0.000000
 30
0.000000
 40
0.317500
 41
0.317500
 70
1
  0
VERTEX
  8
BottomCopper
 10
328.555350
 20
361.842050
  0
VERTEX
  8
BottomCopper
 10
328.555350
 20
362.159550
  0
VERTEX
  8
BottomCopper
 10
327.602850
 20
362.159550
  0
VERTEX
  8
BottomCopper
 10
327.602850
 20
361.842050
  0
SEQEND
  0
POLYLINE
  8
BottomCopper
 66
1
 10
0.000000
 20
0.000000
 30
0.000000
 40
0.317500
 41
0.317500
 70
1
  0
VERTEX
  8
BottomCopper
 10
328.555350
 20
363.112050
  0
VERTEX
  8
BottomCopper
 10
328.555350
 20
363.429550
  0
VERTEX
  8
BottomCopper
 10
327.602850
 20
363.429550
  0
VERTEX
  8
BottomCopper
 10
327.602850
 20
363.112050
  0
SEQEND
  0
POLYLINE
  8
BottomCopper
 66
1
 10
0.000000
 20
0.000000
 30
0.000000
 40
0.317500
 41
0.317500
 70
1
  0
VERTEX
  8
BottomCopper
 10
328.555350
 20
364.382050
  0
VERTEX
  8
BottomCopper
 10
328.555350
 20
364.699550
  0
VERTEX
  8
BottomCopper
 10
327.602850
 20
364.699550
  0
VERTEX
  8
BottomCopper
 10
327.602850
 20
364.382050
  0
SEQEND
  0
POLYLINE
  8
BottomCopper
 66
1
 10
0.000000
 20
0.000000
 30
0.000000
 40
0.508000
 41
0.508000
 70
1
  0
VERTEX
  8
BottomCopper
 10
332.651100
 20
351.586800
  0
VERTEX
  8
BottomCopper
 10
332.651100
 20
352.094800
  0
VERTEX
  8
BottomCopper
 10
331.127100
 20
352.094800
  0
VERTEX
  8
BottomCopper
 10
331.127100
 20
351.586800
  0
SEQEND
  0
POLYLINE
  8
BottomCopper
 66
1
 10
0.000000
 20
0.000000
 30
0.000000
 40
0.508000
 41
0.508000
 70
1
  0
VERTEX
  8
BottomCopper
 10
332.651100
 20
368.096800
  0
VERTEX
  8
BottomCopper
 10
332.651100
 20
368.604800
  0
VERTEX
  8
BottomCopper
 10
331.127100
 20
368.604800
  0
VERTEX
  8
BottomCopper
 10
331.127100
 20
368.096800
  0
SEQEND
  0
POLYLINE
  8
BottomCopper
 66
1
 10
0.000000
 20
0.000000
 30
0.000000
 40
0.381000
 41
0.381000
 70
1
  0
VERTEX
  8
BottomCopper
 10
430.911000
 20
372.910100
  0
VERTEX
  8
BottomCopper
 10
430.911000
 20
374.307100
  0
VERTEX
  8
BottomCopper
 10
430.530000
 20
374.307100
  0
VERTEX
  8
BottomCopper
 10
430.530000
 20
372.910100
  0
SEQEND
  0
POLYLINE
  8
BottomCopper
 66
1
 10
0.000000
 20
0.000000
 30
0.000000
 40
0.381000
 41
0.381000
 70
1
  0
VERTEX
  8
BottomCopper
 10
432.181000
 20
372.910100
  0
VERTEX
  8
BottomCopper
 10
432.181000
 20
374.307100
  0
VERTEX
  8
BottomCopper
 10
431.800000
 20
374.307100
  0
VERTEX
  8
BottomCopper
 10
431.800000
 20
372.910100
  0
SEQEND
  0
POLYLINE
  8
BottomCopper
 66
1
 10
0.000000
 20
0.000000
 30
0.000000
 40
0.381000
 41
0.381000
 70
1
  0
VERTEX
  8
BottomCopper
 10
433.451000
 20
372.910100
  0
VERTEX
  8
BottomCopper
 10
433.451000
 20
374.307100
  0
VERTEX
  8
BottomCopper
 10
433.070000
 20
374.307100
  0
VERTEX
  8
BottomCopper
 10
433.070000
 20
372.910100
  0
SEQEND
  0
POLYLINE
  8
BottomCopper
 66
1
 10
0.000000
 20
0.000000
 30
0.000000
 40
0.381000
 41
0.381000
 70
1
  0
VERTEX
  8
BottomCopper
 10
434.721000
 20
372.910100
  0
VERTEX
  8
BottomCopper
 10
434.721000
 20
374.307100
  0
VERTEX
  8
BottomCopper
 10
434.340000
 20
374.307100
  0
VERTEX
  8
BottomCopper
 10
434.340000
 20
372.910100
  0
SEQEND
  0
POLYLINE
  8
BottomCopper
 66
1
 10
0.000000
 20
0.000000
 30
0.000000
 40
0.381000
 41
0.381000
 70
1
  0
VERTEX
  8
BottomCopper
 10
435.991000
 20
372.910100
  0
VERTEX
  8
BottomCopper
 10
435.991000
 20
374.307100
  0
VERTEX
  8
BottomCopper
 10
435.610000
 20
374.307100
  0
VERTEX
  8
BottomCopper
 10
435.610000
 20
372.910100
  0
SEQEND
  0
POLYLINE
  8
BottomCopper
 66
1
 10
0.000000
 20
0.000000
 30
0.000000
 40
0.381000
 41
0.381000
 70
1
  0
VERTEX
  8
BottomCopper
 10
437.261000
 20
372.910100
  0
VERTEX
  8
BottomCopper
 10
437.261000
 20
374.307100
  0
VERTEX
  8
BottomCopper
 10
436.880000
 20
374.307100
  0
VERTEX
  8
BottomCopper
 10
436.880000
 20
372.910100
  0
SEQEND
  0
POLYLINE
  8
BottomCopper
 66
1
 10
0.000000
 20
0.000000
 30
0.000000
 40
0.381000
 41
0.381000
 70
1
  0
VERTEX
  8
BottomCopper
 10
438.531000
 20
372.910100
  0
VERTEX
  8
BottomCopper
 10
438.531000
 20
374.307100
  0
VERTEX
  8
BottomCopper
 10
438.150000
 20
374.307100
  0
VERTEX
  8
BottomCopper
 10
438.150000
 20
372.910100
  0
SEQEND
  0
POLYLINE
  8
BottomCopper
 66
1
 10
0.000000
 20
0.000000
 30
0.000000
 40
0.381000
 41
0.381000
 70
1
  0
VERTEX
  8
BottomCopper
 10
439.801000
 20
372.910100
  0
VERTEX
  8
BottomCopper
 10
439.801000
 20
374.307100
  0
VERTEX
  8
BottomCopper
 10
439.420000
 20
374.307100
  0
VERTEX
  8
BottomCopper
 10
439.420000
 20
372.910100
  0
SEQEND
  0
POLYLINE
  8
BottomCopper
 66
1
 10
0.000000
 20
0.000000
 30
0.000000
 40
0.381000
 41
0.381000
 70
1
  0
VERTEX
  8
BottomCopper
 10
441.071000
 20
372.910100
  0
VERTEX
  8
BottomCopper
 10
441.071000
 20
374.307100
  0
VERTEX
  8
BottomCopper
 10
440.690000
 20
374.307100
  0
VERTEX
  8
BottomCopper
 10
440.690000
 20
372.910100
  0
SEQEND
  0
POLYLINE
  8
BottomCopper
 66
1
 10
0.000000
 20
0.000000
 30
0.000000
 40
0.381000
 41
0.381000
 70
1
  0
VERTEX
  8
BottomCopper
 10
441.071000
 20
363.766100
  0
VERTEX
  8
BottomCopper
 10
441.071000
 20
365.163100
  0
VERTEX
  8
BottomCopper
 10
440.690000
 20
365.163100
  0
VERTEX
  8
BottomCopper
 10
440.690000
 20
363.766100
  0
SEQEND
  0
POLYLINE
  8
BottomCopper
 66
1
 10
0.000000
 20
0.000000
 30
0.000000
 40
0.381000
 41
0.381000
 70
1
  0
VERTEX
  8
BottomCopper
 10
439.801000
 20
363.766100
  0
VERTEX
  8
BottomCopper
 10
439.801000
 20
365.163100
  0
VERTEX
  8
BottomCopper
 10
439.420000
 20
365.163100
  0
VERTEX
  8
BottomCopper
 10
439.420000
 20
363.766100
  0
SEQEND
  0
POLYLINE
  8
BottomCopper
 66
1
 10
0.000000
 20
0.000000
 30
0.000000
 40
0.381000
 41
0.381000
 70
1
  0
VERTEX
  8
BottomCopper
 10
438.531000
 20
363.766100
  0
VERTEX
  8
BottomCopper
 10
438.531000
 20
365.163100
  0
VERTEX
  8
BottomCopper
 10
438.150000
 20
365.163100
  0
VERTEX
  8
BottomCopper
 10
438.150000
 20
363.766100
  0
SEQEND
  0
POLYLINE
  8
BottomCopper
 66
1
 10
0.000000
 20
0.000000
 30
0.000000
 40
0.381000
 41
0.381000
 70
1
  0
VERTEX
  8
BottomCopper
 10
437.261000
 20
363.766100
  0
VERTEX
  8
BottomCopper
 10
437.261000
 20
365.163100
  0
VERTEX
  8
BottomCopper
 10
436.880000
 20
365.163100
  0
VERTEX
  8
BottomCopper
 10
436.880000
 20
363.766100
  0
SEQEND
  0
POLYLINE
  8
BottomCopper
 66
1
 10
0.000000
 20
0.000000
 30
0.000000
 40
0.381000
 41
0.381000
 70
1
  0
VERTEX
  8
BottomCopper
 10
435.991000
 20
363.766100
  0
VERTEX
  8
BottomCopper
 10
435.991000
 20
365.163100
  0
VERTEX
  8
BottomCopper
 10
435.610000
 20
365.163100
  0
VERTEX
  8
BottomCopper
 10
435.610000
 20
363.766100
  0
SEQEND
  0
POLYLINE
  8
BottomCopper
 66
1
 10
0.000000
 20
0.000000
 30
0.000000
 40
0.381000
 41
0.381000
 70
1
  0
VERTEX
  8
BottomCopper
 10
434.721000
 20
363.766100
  0
VERTEX
  8
BottomCopper
 10
434.721000
 20
365.163100
  0
VERTEX
  8
BottomCopper
 10
434.340000
 20
365.163100
  0
VERTEX
  8
BottomCopper
 10
434.340000
 20
363.766100
  0
SEQEND
  0
POLYLINE
  8
BottomCopper
 66
1
 10
0.000000
 20
0.000000
 30
0.000000
 40
0.381000
 41
0.381000
 70
1
  0
VERTEX
  8
BottomCopper
 10
433.451000
 20
363.766100
  0
VERTEX
  8
BottomCopper
 10
433.451000
 20
365.163100
  0
VERTEX
  8
BottomCopper
 10
433.070000
 20
365.163100
  0
VERTEX
  8
BottomCopper
 10
433.070000
 20
363.766100
  0
SEQEND
  0
POLYLINE
  8
BottomCopper
 66
1
 10
0.000000
 20
0.000000
 30
0.000000
 40
0.381000
 41
0.381000
 70
1
  0
VERTEX
  8
BottomCopper
 10
432.181000
 20
363.766100
  0
VERTEX
  8
BottomCopper
 10
432.181000
 20
365.163100
  0
VERTEX
  8
BottomCopper
 10
431.800000
 20
365.163100
  0
VERTEX
  8
BottomCopper
 10
431.800000
 20
363.766100
  0
SEQEND
  0
POLYLINE
  8
BottomCopper
 66
1
 10
0.000000
 20
0.000000
 30
0.000000
 40
0.381000
 41
0.381000
 70
1
  0
VERTEX
  8
BottomCopper
 10
430.911000
 20
363.766100
  0
VERTEX
  8
BottomCopper
 10
430.911000
 20
365.163100
  0
VERTEX
  8
BottomCopper
 10
430.530000
 20
365.163100
  0
VERTEX
  8
BottomCopper
 10
430.530000
 20
363.766100
  0
SEQEND
  0
POLYLINE
  8
BottomCopper
 66
1
 10
0.000000
 20
0.000000
 30
0.000000
 40
0.381000
 41
0.381000
 70
1
  0
VERTEX
  8
BottomCopper
 10
418.211000
 20
350.177100
  0
VERTEX
  8
BottomCopper
 10
418.211000
 20
351.574100
  0
VERTEX
  8
BottomCopper
 10
417.830000
 20
351.574100
  0
VERTEX
  8
BottomCopper
 10
417.830000
 20
350.177100
  0
SEQEND
  0
POLYLINE
  8
BottomCopper
 66
1
 10
0.000000
 20
0.000000
 30
0.000000
 40
0.381000
 41
0.381000
 70
1
  0
VERTEX
  8
BottomCopper
 10
419.481000
 20
350.177100
  0
VERTEX
  8
BottomCopper
 10
419.481000
 20
351.574100
  0
VERTEX
  8
BottomCopper
 10
419.100000
 20
351.574100
  0
VERTEX
  8
BottomCopper
 10
419.100000
 20
350.177100
  0
SEQEND
  0
POLYLINE
  8
BottomCopper
 66
1
 10
0.000000
 20
0.000000
 30
0.000000
 40
0.381000
 41
0.381000
 70
1
  0
VERTEX
  8
BottomCopper
 10
420.751000
 20
350.177100
  0
VERTEX
  8
BottomCopper
 10
420.751000
 20
351.574100
  0
VERTEX
  8
BottomCopper
 10
420.370000
 20
351.574100
  0
VERTEX
  8
BottomCopper
 10
420.370000
 20
350.177100
  0
SEQEND
  0
POLYLINE
  8
BottomCopper
 66
1
 10
0.000000
 20
0.000000
 30
0.000000
 40
0.381000
 41
0.381000
 70
1
  0
VERTEX
  8
BottomCopper
 10
422.021000
 20
350.177100
  0
VERTEX
  8
BottomCopper
 10
422.021000
 20
351.574100
  0
VERTEX
  8
BottomCopper
 10
421.640000
 20
351.574100
  0
VERTEX
  8
BottomCopper
 10
421.640000
 20
350.177100
  0
SEQEND
  0
POLYLINE
  8
BottomCopper
 66
1
 10
0.000000
 20
0.000000
 30
0.000000
 40
0.381000
 41
0.381000
 70
1
  0
VERTEX
  8
BottomCopper
 10
423.291000
 20
350.177100
  0
VERTEX
  8
BottomCopper
 10
423.291000
 20
351.574100
  0
VERTEX
  8
BottomCopper
 10
422.910000
 20
351.574100
  0
VERTEX
  8
BottomCopper
 10
422.910000
 20
350.177100
  0
SEQEND
  0
POLYLINE
  8
BottomCopper
 66
1
 10
0.000000
 20
0.000000
 30
0.000000
 40
0.381000
 41
0.381000
 70
1
  0
VERTEX
  8
BottomCopper
 10
424.561000
 20
350.177100
  0
VERTEX
  8
BottomCopper
 10
424.561000
 20
351.574100
  0
VERTEX
  8
BottomCopper
 10
424.180000
 20
351.574100
  0
VERTEX
  8
BottomCopper
 10
424.180000
 20
350.177100
  0
SEQEND
  0
POLYLINE
  8
BottomCopper
 66
1
 10
0.000000
 20
0.000000
 30
0.000000
 40
0.381000
 41
0.381000
 70
1
  0
VERTEX
  8
BottomCopper
 10
425.831000
 20
350.177100
  0
VERTEX
  8
BottomCopper
 10
425.831000
 20
351.574100
  0
VERTEX
  8
BottomCopper
 10
425.450000
 20
351.574100
  0
VERTEX
  8
BottomCopper
 10
425.450000
 20
350.177100
  0
SEQEND
  0
POLYLINE
  8
BottomCopper
 66
1
 10
0.000000
 20
0.000000
 30
0.000000
 40
0.381000
 41
0.381000
 70
1
  0
VERTEX
  8
BottomCopper
 10
427.101000
 20
350.177100
  0
VERTEX
  8
BottomCopper
 10
427.101000
 20
351.574100
  0
VERTEX
  8
BottomCopper
 10
426.720000
 20
351.574100
  0
VERTEX
  8
BottomCopper
 10
426.720000
 20
350.177100
  0
SEQEND
  0
POLYLINE
  8
BottomCopper
 66
1
 10
0.000000
 20
0.000000
 30
0.000000
 40
0.381000
 41
0.381000
 70
1
  0
VERTEX
  8
BottomCopper
 10
427.101000
 20
344.589100
  0
VERTEX
  8
BottomCopper
 10
427.101000
 20
345.986100
  0
VERTEX
  8
BottomCopper
 10
426.720000
 20
345.986100
  0
VERTEX
  8
BottomCopper
 10
426.720000
 20
344.589100
  0
SEQEND
  0
POLYLINE
  8
BottomCopper
 66
1
 10
0.000000
 20
0.000000
 30
0.000000
 40
0.381000
 41
0.381000
 70
1
  0
VERTEX
  8
BottomCopper
 10
425.831000
 20
344.589100
  0
VERTEX
  8
BottomCopper
 10
425.831000
 20
345.986100
  0
VERTEX
  8
BottomCopper
 10
425.450000
 20
345.986100
  0
VERTEX
  8
BottomCopper
 10
425.450000
 20
344.589100
  0
SEQEND
  0
POLYLINE
  8
BottomCopper
 66
1
 10
0.000000
 20
0.000000
 30
0.000000
 40
0.381000
 41
0.381000
 70
1
  0
VERTEX
  8
BottomCopper
 10
424.561000
 20
344.589100
  0
VERTEX
  8
BottomCopper
 10
424.561000
 20
345.986100
  0
VERTEX
  8
BottomCopper
 10
424.180000
 20
345.986100
  0
VERTEX
  8
BottomCopper
 10
424.180000
 20
344.589100
  0
SEQEND
  0
POLYLINE
  8
BottomCopper
 66
1
 10
0.000000
 20
0.000000
 30
0.000000
 40
0.381000
 41
0.381000
 70
1
  0
VERTEX
  8
BottomCopper
 10
423.291000
 20
344.589100
  0
VERTEX
  8
BottomCopper
 10
423.291000
 20
345.986100
  0
VERTEX
  8
BottomCopper
 10
422.910000
 20
345.986100
  0
VERTEX
  8
BottomCopper
 10
422.910000
 20
344.589100
  0
SEQEND
  0
POLYLINE
  8
BottomCopper
 66
1
 10
0.000000
 20
0.000000
 30
0.000000
 40
0.381000
 41
0.381000
 70
1
  0
VERTEX
  8
BottomCopper
 10
422.021000
 20
344.589100
  0
VERTEX
  8
BottomCopper
 10
422.021000
 20
345.986100
  0
VERTEX
  8
BottomCopper
 10
421.640000
 20
345.986100
  0
VERTEX
  8
BottomCopper
 10
421.640000
 20
344.589100
  0
SEQEND
  0
POLYLINE
  8
BottomCopper
 66
1
 10
0.000000
 20
0.000000
 30
0.000000
 40
0.381000
 41
0.381000
 70
1
  0
VERTEX
  8
BottomCopper
 10
420.751000
 20
344.589100
  0
VERTEX
  8
BottomCopper
 10
420.751000
 20
345.986100
  0
VERTEX
  8
BottomCopper
 10
420.370000
 20
345.986100
  0
VERTEX
  8
BottomCopper
 10
420.370000
 20
344.589100
  0
SEQEND
  0
POLYLINE
  8
BottomCopper
 66
1
 10
0.000000
 20
0.000000
 30
0.000000
 40
0.381000
 41
0.381000
 70
1
  0
VERTEX
  8
BottomCopper
 10
419.481000
 20
344.589100
  0
VERTEX
  8
BottomCopper
 10
419.481000
 20
345.986100
  0
VERTEX
  8
BottomCopper
 10
419.100000
 20
345.986100
  0
VERTEX
  8
BottomCopper
 10
419.100000
 20
344.589100
  0
SEQEND
  0
POLYLINE
  8
BottomCopper
 66
1
 10
0.000000
 20
0.000000
 30
0.000000
 40
0.381000
 41
0.381000
 70
1
  0
VERTEX
  8
BottomCopper
 10
418.211000
 20
344.589100
  0
VERTEX
  8
BottomCopper
 10
418.211000
 20
345.986100
  0
VERTEX
  8
BottomCopper
 10
417.830000
 20
345.986100
  0
VERTEX
  8
BottomCopper
 10
417.830000
 20
344.589100
  0
SEQEND
  0
POLYLINE
  8
BottomCopper
 66
1
 10
0.000000
 20
0.000000
 30
0.000000
 40
0.381000
 41
0.381000
 70
1
  0
VERTEX
  8
BottomCopper
 10
458.851000
 20
359.956100
  0
VERTEX
  8
BottomCopper
 10
458.851000
 20
360.337100
  0
VERTEX
  8
BottomCopper
 10
457.454000
 20
360.337100
  0
VERTEX
  8
BottomCopper
 10
457.454000
 20
359.956100
  0
SEQEND
  0
POLYLINE
  8
BottomCopper
 66
1
 10
0.000000
 20
0.000000
 30
0.000000
 40
0.381000
 41
0.381000
 70
1
  0
VERTEX
  8
BottomCopper
 10
458.851000
 20
358.686100
  0
VERTEX
  8
BottomCopper
 10
458.851000
 20
359.067100
  0
VERTEX
  8
BottomCopper
 10
457.454000
 20
359.067100
  0
VERTEX
  8
BottomCopper
 10
457.454000
 20
358.686100
  0
SEQEND
  0
POLYLINE
  8
BottomCopper
 66
1
 10
0.000000
 20
0.000000
 30
0.000000
 40
0.381000
 41
0.381000
 70
1
  0
VERTEX
  8
BottomCopper
 10
458.851000
 20
357.416100
  0
VERTEX
  8
BottomCopper
 10
458.851000
 20
357.797100
  0
VERTEX
  8
BottomCopper
 10
457.454000
 20
357.797100
  0
VERTEX
  8
BottomCopper
 10
457.454000
 20
357.416100
  0
SEQEND
  0
POLYLINE
  8
BottomCopper
 66
1
 10
0.000000
 20
0.000000
 30
0.000000
 40
0.381000
 41
0.381000
 70
1
  0
VERTEX
  8
BottomCopper
 10
458.851000
 20
356.146100
  0
VERTEX
  8
BottomCopper
 10
458.851000
 20
356.527100
  0
VERTEX
  8
BottomCopper
 10
457.454000
 20
356.527100
  0
VERTEX
  8
BottomCopper
 10
457.454000
 20
356.146100
  0
SEQEND
  0
POLYLINE
  8
BottomCopper
 66
1
 10
0.000000
 20
0.000000
 30
0.000000
 40
0.381000
 41
0.381000
 70
1
  0
VERTEX
  8
BottomCopper
 10
458.851000
 20
354.876100
  0
VERTEX
  8
BottomCopper
 10
458.851000
 20
355.257100
  0
VERTEX
  8
BottomCopper
 10
457.454000
 20
355.257100
  0
VERTEX
  8
BottomCopper
 10
457.454000
 20
354.876100
  0
SEQEND
  0
POLYLINE
  8
BottomCopper
 66
1
 10
0.000000
 20
0.000000
 30
0.000000
 40
0.381000
 41
0.381000
 70
1
  0
VERTEX
  8
BottomCopper
 10
458.851000
 20
353.606100
  0
VERTEX
  8
BottomCopper
 10
458.851000
 20
353.987100
  0
VERTEX
  8
BottomCopper
 10
457.454000
 20
353.987100
  0
VERTEX
  8
BottomCopper
 10
457.454000
 20
353.606100
  0
SEQEND
  0
POLYLINE
  8
BottomCopper
 66
1
 10
0.000000
 20
0.000000
 30
0.000000
 40
0.381000
 41
0.381000
 70
1
  0
VERTEX
  8
BottomCopper
 10
458.851000
 20
352.336100
  0
VERTEX
  8
BottomCopper
 10
458.851000
 20
352.717100
  0
VERTEX
  8
BottomCopper
 10
457.454000
 20
352.717100
  0
VERTEX
  8
BottomCopper
 10
457.454000
 20
352.336100
  0
SEQEND
  0
POLYLINE
  8
BottomCopper
 66
1
 10
0.000000
 20
0.000000
 30
0.000000
 40
0.381000
 41
0.381000
 70
1
  0
VERTEX
  8
BottomCopper
 10
458.851000
 20
351.066100
  0
VERTEX
  8
BottomCopper
 10
458.851000
 20
351.447100
  0
VERTEX
  8
BottomCopper
 10
457.454000
 20
351.447100
  0
VERTEX
  8
BottomCopper
 10
457.454000
 20
351.066100
  0
SEQEND
  0
POLYLINE
  8
BottomCopper
 66
1
 10
0.000000
 20
0.000000
 30
0.000000
 40
0.381000
 41
0.381000
 70
1
  0
VERTEX
  8
BottomCopper
 10
458.851000
 20
349.796100
  0
VERTEX
  8
BottomCopper
 10
458.851000
 20
350.177100
  0
VERTEX
  8
BottomCopper
 10
457.454000
 20
350.177100
  0
VERTEX
  8
BottomCopper
 10
457.454000
 20
349.796100
  0
SEQEND
  0
POLYLINE
  8
BottomCopper
 66
1
 10
0.000000
 20
0.000000
 30
0.000000
 40
0.381000
 41
0.381000
 70
1
  0
VERTEX
  8
BottomCopper
 10
449.707000
 20
349.796100
  0
VERTEX
  8
BottomCopper
 10
449.707000
 20
350.177100
  0
VERTEX
  8
BottomCopper
 10
448.310000
 20
350.177100
  0
VERTEX
  8
BottomCopper
 10
448.310000
 20
349.796100
  0
SEQEND
  0
POLYLINE
  8
BottomCopper
 66
1
 10
0.000000
 20
0.000000
 30
0.000000
 40
0.381000
 41
0.381000
 70
1
  0
VERTEX
  8
BottomCopper
 10
449.707000
 20
351.066100
  0
VERTEX
  8
BottomCopper
 10
449.707000
 20
351.447100
  0
VERTEX
  8
BottomCopper
 10
448.310000
 20
351.447100
  0
VERTEX
  8
BottomCopper
 10
448.310000
 20
351.066100
  0
SEQEND
  0
POLYLINE
  8
BottomCopper
 66
1
 10
0.000000
 20
0.000000
 30
0.000000
 40
0.381000
 41
0.381000
 70
1
  0
VERTEX
  8
BottomCopper
 10
449.707000
 20
352.336100
  0
VERTEX
  8
BottomCopper
 10
449.707000
 20
352.717100
  0
VERTEX
  8
BottomCopper
 10
448.310000
 20
352.717100
  0
VERTEX
  8
BottomCopper
 10
448.310000
 20
352.336100
  0
SEQEND
  0
POLYLINE
  8
BottomCopper
 66
1
 10
0.000000
 20
0.000000
 30
0.000000
 40
0.381000
 41
0.381000
 70
1
  0
VERTEX
  8
BottomCopper
 10
449.707000
 20
353.606100
  0
VERTEX
  8
BottomCopper
 10
449.707000
 20
353.987100
  0
VERTEX
  8
BottomCopper
 10
448.310000
 20
353.987100
  0
VERTEX
  8
BottomCopper
 10
448.310000
 20
353.606100
  0
SEQEND
  0
POLYLINE
  8
BottomCopper
 66
1
 10
0.000000
 20
0.000000
 30
0.000000
 40
0.381000
 41
0.381000
 70
1
  0
VERTEX
  8
BottomCopper
 10
449.707000
 20
354.876100
  0
VERTEX
  8
BottomCopper
 10
449.707000
 20
355.257100
  0
VERTEX
  8
BottomCopper
 10
448.310000
 20
355.257100
  0
VERTEX
  8
BottomCopper
 10
448.310000
 20
354.876100
  0
SEQEND
  0
POLYLINE
  8
BottomCopper
 66
1
 10
0.000000
 20
0.000000
 30
0.000000
 40
0.381000
 41
0.381000
 70
1
  0
VERTEX
  8
BottomCopper
 10
449.707000
 20
356.146100
  0
VERTEX
  8
BottomCopper
 10
449.707000
 20
356.527100
  0
VERTEX
  8
BottomCopper
 10
448.310000
 20
356.527100
  0
VERTEX
  8
BottomCopper
 10
448.310000
 20
356.146100
  0
SEQEND
  0
POLYLINE
  8
BottomCopper
 66
1
 10
0.000000
 20
0.000000
 30
0.000000
 40
0.381000
 41
0.381000
 70
1
  0
VERTEX
  8
BottomCopper
 10
449.707000
 20
357.416100
  0
VERTEX
  8
BottomCopper
 10
449.707000
 20
357.797100
  0
VERTEX
  8
BottomCopper
 10
448.310000
 20
357.797100
  0
VERTEX
  8
BottomCopper
 10
448.310000
 20
357.416100
  0
SEQEND
  0
POLYLINE
  8
BottomCopper
 66
1
 10
0.000000
 20
0.000000
 30
0.000000
 40
0.381000
 41
0.381000
 70
1
  0
VERTEX
  8
BottomCopper
 10
449.707000
 20
358.686100
  0
VERTEX
  8
BottomCopper
 10
449.707000
 20
359.067100
  0
VERTEX
  8
BottomCopper
 10
448.310000
 20
359.067100
  0
VERTEX
  8
BottomCopper
 10
448.310000
 20
358.686100
  0
SEQEND
  0
POLYLINE
  8
BottomCopper
 66
1
 10
0.000000
 20
0.000000
 30
0.000000
 40
0.381000
 41
0.381000
 70
1
  0
VERTEX
  8
BottomCopper
 10
449.707000
 20
359.956100
  0
VERTEX
  8
BottomCopper
 10
449.707000
 20
360.337100
  0
VERTEX
  8
BottomCopper
 10
448.310000
 20
360.337100
  0
VERTEX
  8
BottomCopper
 10
448.310000
 20
359.956100
  0
SEQEND
  0
POLYLINE
  8
BottomCopper
 66
1
 10
0.000000
 20
0.000000
 30
0.000000
 40
0.381000
 41
0.381000
 70
1
  0
VERTEX
  8
BottomCopper
 10
360.680000
 20
353.733100
  0
VERTEX
  8
BottomCopper
 10
360.680000
 20
354.114100
  0
VERTEX
  8
BottomCopper
 10
359.283000
 20
354.114100
  0
VERTEX
  8
BottomCopper
 10
359.283000
 20
353.733100
  0
SEQEND
  0
POLYLINE
  8
BottomCopper
 66
1
 10
0.000000
 20
0.000000
 30
0.000000
 40
0.381000
 41
0.381000
 70
1
  0
VERTEX
  8
BottomCopper
 10
360.680000
 20
355.003100
  0
VERTEX
  8
BottomCopper
 10
360.680000
 20
355.384100
  0
VERTEX
  8
BottomCopper
 10
359.283000
 20
355.384100
  0
VERTEX
  8
BottomCopper
 10
359.283000
 20
355.003100
  0
SEQEND
  0
POLYLINE
  8
BottomCopper
 66
1
 10
0.000000
 20
0.000000
 30
0.000000
 40
0.381000
 41
0.381000
 70
1
  0
VERTEX
  8
BottomCopper
 10
360.680000
 20
356.273100
  0
VERTEX
  8
BottomCopper
 10
360.680000
 20
356.654100
  0
VERTEX
  8
BottomCopper
 10
359.283000
 20
356.654100
  0
VERTEX
  8
BottomCopper
 10
359.283000
 20
356.273100
  0
SEQEND
  0
POLYLINE
  8
BottomCopper
 66
1
 10
0.000000
 20
0.000000
 30
0.000000
 40
0.381000
 41
0.381000
 70
1
  0
VERTEX
  8
BottomCopper
 10
360.680000
 20
357.543100
  0
VERTEX
  8
BottomCopper
 10
360.680000
 20
357.924100
  0
VERTEX
  8
BottomCopper
 10
359.283000
 20
357.924100
  0
VERTEX
  8
BottomCopper
 10
359.283000
 20
357.543100
  0
SEQEND
  0
POLYLINE
  8
BottomCopper
 66
1
 10
0.000000
 20
0.000000
 30
0.000000
 40
0.381000
 41
0.381000
 70
1
  0
VERTEX
  8
BottomCopper
 10
366.268000
 20
357.543100
  0
VERTEX
  8
BottomCopper
 10
366.268000
 20
357.924100
  0
VERTEX
  8
BottomCopper
 10
364.871000
 20
357.924100
  0
VERTEX
  8
BottomCopper
 10
364.871000
 20
357.543100
  0
SEQEND
  0
POLYLINE
  8
BottomCopper
 66
1
 10
0.000000
 20
0.000000
 30
0.000000
 40
0.381000
 41
0.381000
 70
1
  0
VERTEX
  8
BottomCopper
 10
366.268000
 20
356.273100
  0
VERTEX
  8
BottomCopper
 10
366.268000
 20
356.654100
  0
VERTEX
  8
BottomCopper
 10
364.871000
 20
356.654100
  0
VERTEX
  8
BottomCopper
 10
364.871000
 20
356.273100
  0
SEQEND
  0
POLYLINE
  8
BottomCopper
 66
1
 10
0.000000
 20
0.000000
 30
0.000000
 40
0.381000
 41
0.381000
 70
1
  0
VERTEX
  8
BottomCopper
 10
366.268000
 20
355.003100
  0
VERTEX
  8
BottomCopper
 10
366.268000
 20
355.384100
  0
VERTEX
  8
BottomCopper
 10
364.871000
 20
355.384100
  0
VERTEX
  8
BottomCopper
 10
364.871000
 20
355.003100
  0
SEQEND
  0
POLYLINE
  8
BottomCopper
 66
1
 10
0.000000
 20
0.000000
 30
0.000000
 40
0.381000
 41
0.381000
 70
1
  0
VERTEX
  8
BottomCopper
 10
366.268000
 20
353.733100
  0
VERTEX
  8
BottomCopper
 10
366.268000
 20
354.114100
  0
VERTEX
  8
BottomCopper
 10
364.871000
 20
354.114100
  0
VERTEX
  8
BottomCopper
 10
364.871000
 20
353.733100
  0
SEQEND
  0
POLYLINE
  8
BottomCopper
 66
1
 10
0.000000
 20
0.000000
 30
0.000000
 40
0.762000
 41
0.762000
 70
1
  0
VERTEX
  8
BottomCopper
 42
1.000000
 10
379.666500
 20
365.861600
  0
VERTEX
  8
BottomCopper
 42
1.000000
 10
380.428500
 20
365.861600
  0
SEQEND
  0
POLYLINE
  8
BottomCopper
 66
1
 10
0.000000
 20
0.000000
 30
0.000000
 40
0.762000
 41
0.762000
 70
1
  0
VERTEX
  8
BottomCopper
 42
1.000000
 10
377.126500
 20
365.861600
  0
VERTEX
  8
BottomCopper
 42
1.000000
 10
377.888500
 20
365.861600
  0
SEQEND
  0
POLYLINE
  8
BottomCopper
 66
1
 10
0.000000
 20
0.000000
 30
0.000000
 40
0.762000
 41
0.762000
 70
1
  0
VERTEX
  8
BottomCopper
 42
1.000000
 10
374.586500
 20
365.861600
  0
VERTEX
  8
BottomCopper
 42
1.000000
 10
375.348500
 20
365.861600
  0
SEQEND
  0
POLYLINE
  8
BottomCopper
 66
1
 10
0.000000
 20
0.000000
 30
0.000000
 40
0.762000
 41
0.762000
 70
1
  0
VERTEX
  8
BottomCopper
 42
1.000000
 10
372.046500
 20
365.861600
  0
VERTEX
  8
BottomCopper
 42
1.000000
 10
372.808500
 20
365.861600
  0
SEQEND
  0
POLYLINE
  8
BottomCopper
 66
1
 10
0.000000
 20
0.000000
 30
0.000000
 40
0.762000
 41
0.762000
 70
1
  0
VERTEX
  8
BottomCopper
 42
1.000000
 10
372.046500
 20
358.241600
  0
VERTEX
  8
BottomCopper
 42
1.000000
 10
372.808500
 20
358.241600
  0
SEQEND
  0
POLYLINE
  8
BottomCopper
 66
1
 10
0.000000
 20
0.000000
 30
0.000000
 40
0.762000
 41
0.762000
 70
1
  0
VERTEX
  8
BottomCopper
 42
1.000000
 10
374.586500
 20
358.241600
  0
VERTEX
  8
BottomCopper
 42
1.000000
 10
375.348500
 20
358.241600
  0
SEQEND
  0
POLYLINE
  8
BottomCopper
 66
1
 10
0.000000
 20
0.000000
 30
0.000000
 40
0.762000
 41
0.762000
 70
1
  0
VERTEX
  8
BottomCopper
 42
1.000000
 10
377.126500
 20
358.241600
  0
VERTEX
  8
BottomCopper
 42
1.000000
 10
377.888500
 20
358.241600
  0
SEQEND
  0
POLYLINE
  8
BottomCopper
 66
1
 10
0.000000
 20
0.000000
 30
0.000000
 40
0.762000
 41
0.762000
 70
1
  0
VERTEX
  8
BottomCopper
 42
1.000000
 10
379.666500
 20
358.241600
  0
VERTEX
  8
BottomCopper
 42
1.000000
 10
380.428500
 20
358.241600
  0
SEQEND
  0
POLYLINE
  8
BottomCopper
 66
1
 10
0.000000
 20
0.000000
 30
0.000000
 40
0.762000
 41
0.762000
 70
1
  0
VERTEX
  8
BottomCopper
 10
347.002100
 20
368.198400
  0
VERTEX
  8
BottomCopper
 10
347.002100
 20
368.960400
  0
VERTEX
  8
BottomCopper
 10
346.240100
 20
368.960400
  0
VERTEX
  8
BottomCopper
 10
346.240100
 20
368.198400
  0
SEQEND
  0
POLYLINE
  8
BottomCopper
 66
1
 10
0.000000
 20
0.000000
 30
0.000000
 40
0.762000
 41
0.762000
 70
1
  0
VERTEX
  8
BottomCopper
 10
347.002100
 20
363.220000
  0
VERTEX
  8
BottomCopper
 10
347.002100
 20
363.982000
  0
VERTEX
  8
BottomCopper
 10
346.240100
 20
363.982000
  0
VERTEX
  8
BottomCopper
 10
346.240100
 20
363.220000
  0
SEQEND
  0
POLYLINE
  8
BottomCopper
 66
1
 10
0.000000
 20
0.000000
 30
0.000000
 40
0.762000
 41
0.762000
 70
1
  0
VERTEX
  8
BottomCopper
 10
339.509100
 20
363.220000
  0
VERTEX
  8
BottomCopper
 10
339.509100
 20
363.982000
  0
VERTEX
  8
BottomCopper
 10
338.747100
 20
363.982000
  0
VERTEX
  8
BottomCopper
 10
338.747100
 20
363.220000
  0
SEQEND
  0
POLYLINE
  8
BottomCopper
 66
1
 10
0.000000
 20
0.000000
 30
0.000000
 40
0.762000
 41
0.762000
 70
1
  0
VERTEX
  8
BottomCopper
 10
339.509100
 20
368.198400
  0
VERTEX
  8
BottomCopper
 10
339.509100
 20
368.960400
  0
VERTEX
  8
BottomCopper
 10
338.747100
 20
368.960400
  0
VERTEX
  8
BottomCopper
 10
338.747100
 20
368.198400
  0
SEQEND
  0
POLYLINE
  8
BottomCopper
 66
1
 10
0.000000
 20
0.000000
 30
0.000000
 40
0.762000
 41
0.762000
 70
1
  0
VERTEX
  8
BottomCopper
 10
347.002100
 20
365.709200
  0
VERTEX
  8
BottomCopper
 10
347.002100
 20
366.471200
  0
VERTEX
  8
BottomCopper
 10
346.240100
 20
366.471200
  0
VERTEX
  8
BottomCopper
 10
346.240100
 20
365.709200
  0
SEQEND
  0
POLYLINE
  8
BottomCopper
 66
1
 10
0.000000
 20
0.000000
 30
0.000000
 40
0.762000
 41
0.762000
 70
1
  0
VERTEX
  8
BottomCopper
 10
339.509100
 20
365.709200
  0
VERTEX
  8
BottomCopper
 10
339.509100
 20
366.471200
  0
VERTEX
  8
BottomCopper
 10
338.747100
 20
366.471200
  0
VERTEX
  8
BottomCopper
 10
338.747100
 20
365.709200
  0
SEQEND
  0
POLYLINE
  8
BottomCopper
 66
1
 10
0.000000
 20
0.000000
 30
0.000000
 40
0.381000
 41
0.381000
 70
1
  0
VERTEX
  8
BottomCopper
 10
408.813000
 20
359.067100
  0
VERTEX
  8
BottomCopper
 10
408.813000
 20
360.464100
  0
VERTEX
  8
BottomCopper
 10
408.432000
 20
360.464100
  0
VERTEX
  8
BottomCopper
 10
408.432000
 20
359.067100
  0
SEQEND
  0
POLYLINE
  8
BottomCopper
 66
1
 10
0.000000
 20
0.000000
 30
0.000000
 40
0.381000
 41
0.381000
 70
1
  0
VERTEX
  8
BottomCopper
 10
410.083000
 20
359.067100
  0
VERTEX
  8
BottomCopper
 10
410.083000
 20
360.464100
  0
VERTEX
  8
BottomCopper
 10
409.702000
 20
360.464100
  0
VERTEX
  8
BottomCopper
 10
409.702000
 20
359.067100
  0
SEQEND
  0
POLYLINE
  8
BottomCopper
 66
1
 10
0.000000
 20
0.000000
 30
0.000000
 40
0.381000
 41
0.381000
 70
1
  0
VERTEX
  8
BottomCopper
 10
411.353000
 20
359.067100
  0
VERTEX
  8
BottomCopper
 10
411.353000
 20
360.464100
  0
VERTEX
  8
BottomCopper
 10
410.972000
 20
360.464100
  0
VERTEX
  8
BottomCopper
 10
410.972000
 20
359.067100
  0
SEQEND
  0
POLYLINE
  8
BottomCopper
 66
1
 10
0.000000
 20
0.000000
 30
0.000000
 40
0.381000
 41
0.381000
 70
1
  0
VERTEX
  8
BottomCopper
 10
412.623000
 20
359.067100
  0
VERTEX
  8
BottomCopper
 10
412.623000
 20
360.464100
  0
VERTEX
  8
BottomCopper
 10
412.242000
 20
360.464100
  0
VERTEX
  8
BottomCopper
 10
412.242000
 20
359.067100
  0
SEQEND
  0
POLYLINE
  8
BottomCopper
 66
1
 10
0.000000
 20
0.000000
 30
0.000000
 40
0.381000
 41
0.381000
 70
1
  0
VERTEX
  8
BottomCopper
 10
412.623000
 20
353.479100
  0
VERTEX
  8
BottomCopper
 10
412.623000
 20
354.876100
  0
VERTEX
  8
BottomCopper
 10
412.242000
 20
354.876100
  0
VERTEX
  8
BottomCopper
 10
412.242000
 20
353.479100
  0
SEQEND
  0
POLYLINE
  8
BottomCopper
 66
1
 10
0.000000
 20
0.000000
 30
0.000000
 40
0.381000
 41
0.381000
 70
1
  0
VERTEX
  8
BottomCopper
 10
411.353000
 20
353.479100
  0
VERTEX
  8
BottomCopper
 10
411.353000
 20
354.876100
  0
VERTEX
  8
BottomCopper
 10
410.972000
 20
354.876100
  0
VERTEX
  8
BottomCopper
 10
410.972000
 20
353.479100
  0
SEQEND
  0
POLYLINE
  8
BottomCopper
 66
1
 10
0.000000
 20
0.000000
 30
0.000000
 40
0.381000
 41
0.381000
 70
1
  0
VERTEX
  8
BottomCopper
 10
410.083000
 20
353.479100
  0
VERTEX
  8
BottomCopper
 10
410.083000
 20
354.876100
  0
VERTEX
  8
BottomCopper
 10
409.702000
 20
354.876100
  0
VERTEX
  8
BottomCopper
 10
409.702000
 20
353.479100
  0
SEQEND
  0
POLYLINE
  8
BottomCopper
 66
1
 10
0.000000
 20
0.000000
 30
0.000000
 40
0.381000
 41
0.381000
 70
1
  0
VERTEX
  8
BottomCopper
 10
408.813000
 20
353.479100
  0
VERTEX
  8
BottomCopper
 10
408.813000
 20
354.876100
  0
VERTEX
  8
BottomCopper
 10
408.432000
 20
354.876100
  0
VERTEX
  8
BottomCopper
 10
408.432000
 20
353.479100
  0
SEQEND
  0
POLYLINE
  8
BottomCopper
 66
1
 10
0.000000
 20
0.000000
 30
0.000000
 40
0.508000
 41
0.508000
 70
1
  0
VERTEX
  8
BottomCopper
 10
389.318500
 20
358.114600
  0
VERTEX
  8
BottomCopper
 10
389.318500
 20
359.384600
  0
VERTEX
  8
BottomCopper
 10
388.810500
 20
359.384600
  0
VERTEX
  8
BottomCopper
 10
388.810500
 20
358.114600
  0
SEQEND
  0
POLYLINE
  8
BottomCopper
 66
1
 10
0.000000
 20
0.000000
 30
0.000000
 40
0.508000
 41
0.508000
 70
1
  0
VERTEX
  8
BottomCopper
 10
391.604500
 20
358.114600
  0
VERTEX
  8
BottomCopper
 10
391.604500
 20
359.384600
  0
VERTEX
  8
BottomCopper
 10
391.096500
 20
359.384600
  0
VERTEX
  8
BottomCopper
 10
391.096500
 20
358.114600
  0
SEQEND
  0
POLYLINE
  8
BottomCopper
 66
1
 10
0.000000
 20
0.000000
 30
0.000000
 40
0.508000
 41
0.508000
 70
1
  0
VERTEX
  8
BottomCopper
 10
393.890500
 20
358.114600
  0
VERTEX
  8
BottomCopper
 10
393.890500
 20
359.384600
  0
VERTEX
  8
BottomCopper
 10
393.382500
 20
359.384600
  0
VERTEX
  8
BottomCopper
 10
393.382500
 20
358.114600
  0
SEQEND
  0
POLYLINE
  8
BottomCopper
 66
1
 10
0.000000
 20
0.000000
 30
0.000000
 40
2.476500
 41
2.476500
 70
1
  0
VERTEX
  8
BottomCopper
 10
393.287250
 20
351.161350
  0
VERTEX
  8
BottomCopper
 10
393.287250
 20
353.637850
  0
VERTEX
  8
BottomCopper
 10
389.413750
 20
353.637850
  0
VERTEX
  8
BottomCopper
 10
389.413750
 20
351.161350
  0
SEQEND
  0
POLYLINE
  8
BottomCopper
 66
1
 10
0.000000
 20
0.000000
 30
0.000000
 40
0.381000
 41
0.381000
 70
1
  0
VERTEX
  8
BottomCopper
 10
451.993000
 20
345.097100
  0
VERTEX
  8
BottomCopper
 10
451.993000
 20
346.494100
  0
VERTEX
  8
BottomCopper
 10
451.612000
 20
346.494100
  0
VERTEX
  8
BottomCopper
 10
451.612000
 20
345.097100
  0
SEQEND
  0
POLYLINE
  8
BottomCopper
 66
1
 10
0.000000
 20
0.000000
 30
0.000000
 40
0.381000
 41
0.381000
 70
1
  0
VERTEX
  8
BottomCopper
 10
453.263000
 20
345.097100
  0
VERTEX
  8
BottomCopper
 10
453.263000
 20
346.494100
  0
VERTEX
  8
BottomCopper
 10
452.882000
 20
346.494100
  0
VERTEX
  8
BottomCopper
 10
452.882000
 20
345.097100
  0
SEQEND
  0
POLYLINE
  8
BottomCopper
 66
1
 10
0.000000
 20
0.000000
 30
0.000000
 40
0.381000
 41
0.381000
 70
1
  0
VERTEX
  8
BottomCopper
 10
454.533000
 20
345.097100
  0
VERTEX
  8
BottomCopper
 10
454.533000
 20
346.494100
  0
VERTEX
  8
BottomCopper
 10
454.152000
 20
346.494100
  0
VERTEX
  8
BottomCopper
 10
454.152000
 20
345.097100
  0
SEQEND
  0
POLYLINE
  8
BottomCopper
 66
1
 10
0.000000
 20
0.000000
 30
0.000000
 40
0.381000
 41
0.381000
 70
1
  0
VERTEX
  8
BottomCopper
 10
455.803000
 20
345.097100
  0
VERTEX
  8
BottomCopper
 10
455.803000
 20
346.494100
  0
VERTEX
  8
BottomCopper
 10
455.422000
 20
346.494100
  0
VERTEX
  8
BottomCopper
 10
455.422000
 20
345.097100
  0
SEQEND
  0
POLYLINE
  8
BottomCopper
 66
1
 10
0.000000
 20
0.000000
 30
0.000000
 40
0.381000
 41
0.381000
 70
1
  0
VERTEX
  8
BottomCopper
 10
455.803000
 20
339.509100
  0
VERTEX
  8
BottomCopper
 10
455.803000
 20
340.906100
  0
VERTEX
  8
BottomCopper
 10
455.422000
 20
340.906100
  0
VERTEX
  8
BottomCopper
 10
455.422000
 20
339.509100
  0
SEQEND
  0
POLYLINE
  8
BottomCopper
 66
1
 10
0.000000
 20
0.000000
 30
0.000000
 40
0.381000
 41
0.381000
 70
1
  0
VERTEX
  8
BottomCopper
 10
454.533000
 20
339.509100
  0
VERTEX
  8
BottomCopper
 10
454.533000
 20
340.906100
  0
VERTEX
  8
BottomCopper
 10
454.152000
 20
340.906100
  0
VERTEX
  8
BottomCopper
 10
454.152000
 20
339.509100
  0
SEQEND
  0
POLYLINE
  8
BottomCopper
 66
1
 10
0.000000
 20
0.000000
 30
0.000000
 40
0.381000
 41
0.381000
 70
1
  0
VERTEX
  8
BottomCopper
 10
453.263000
 20
339.509100
  0
VERTEX
  8
BottomCopper
 10
453.263000
 20
340.906100
  0
VERTEX
  8
BottomCopper
 10
452.882000
 20
340.906100
  0
VERTEX
  8
BottomCopper
 10
452.882000
 20
339.509100
  0
SEQEND
  0
POLYLINE
  8
BottomCopper
 66
1
 10
0.000000
 20
0.000000
 30
0.000000
 40
0.381000
 41
0.381000
 70
1
  0
VERTEX
  8
BottomCopper
 10
451.993000
 20
339.509100
  0
VERTEX
  8
BottomCopper
 10
451.993000
 20
340.906100
  0
VERTEX
  8
BottomCopper
 10
451.612000
 20
340.906100
  0
VERTEX
  8
BottomCopper
 10
451.612000
 20
339.509100
  0
SEQEND
  0
POLYLINE
  8
BottomCopper
 66
1
 10
0.000000
 20
0.000000
 30
0.000000
 40
0.381000
 41
0.381000
 70
1
  0
VERTEX
  8
BottomCopper
 10
445.643000
 20
345.097100
  0
VERTEX
  8
BottomCopper
 10
445.643000
 20
346.494100
  0
VERTEX
  8
BottomCopper
 10
445.262000
 20
346.494100
  0
VERTEX
  8
BottomCopper
 10
445.262000
 20
345.097100
  0
SEQEND
  0
POLYLINE
  8
BottomCopper
 66
1
 10
0.000000
 20
0.000000
 30
0.000000
 40
0.381000
 41
0.381000
 70
1
  0
VERTEX
  8
BottomCopper
 10
446.913000
 20
345.097100
  0
VERTEX
  8
BottomCopper
 10
446.913000
 20
346.494100
  0
VERTEX
  8
BottomCopper
 10
446.532000
 20
346.494100
  0
VERTEX
  8
BottomCopper
 10
446.532000
 20
345.097100
  0
SEQEND
  0
POLYLINE
  8
BottomCopper
 66
1
 10
0.000000
 20
0.000000
 30
0.000000
 40
0.381000
 41
0.381000
 70
1
  0
VERTEX
  8
BottomCopper
 10
448.183000
 20
345.097100
  0
VERTEX
  8
BottomCopper
 10
448.183000
 20
346.494100
  0
VERTEX
  8
BottomCopper
 10
447.802000
 20
346.494100
  0
VERTEX
  8
BottomCopper
 10
447.802000
 20
345.097100
  0
SEQEND
  0
POLYLINE
  8
BottomCopper
 66
1
 10
0.000000
 20
0.000000
 30
0.000000
 40
0.381000
 41
0.381000
 70
1
  0
VERTEX
  8
BottomCopper
 10
449.453000
 20
345.097100
  0
VERTEX
  8
BottomCopper
 10
449.453000
 20
346.494100
  0
VERTEX
  8
BottomCopper
 10
449.072000
 20
346.494100
  0
VERTEX
  8
BottomCopper
 10
449.072000
 20
345.097100
  0
SEQEND
  0
POLYLINE
  8
BottomCopper
 66
1
 10
0.000000
 20
0.000000
 30
0.000000
 40
0.381000
 41
0.381000
 70
1
  0
VERTEX
  8
BottomCopper
 10
449.453000
 20
339.509100
  0
VERTEX
  8
BottomCopper
 10
449.453000
 20
340.906100
  0
VERTEX
  8
BottomCopper
 10
449.072000
 20
340.906100
  0
VERTEX
  8
BottomCopper
 10
449.072000
 20
339.509100
  0
SEQEND
  0
POLYLINE
  8
BottomCopper
 66
1
 10
0.000000
 20
0.000000
 30
0.000000
 40
0.381000
 41
0.381000
 70
1
  0
VERTEX
  8
BottomCopper
 10
448.183000
 20
339.509100
  0
VERTEX
  8
BottomCopper
 10
448.183000
 20
340.906100
  0
VERTEX
  8
BottomCopper
 10
447.802000
 20
340.906100
  0
VERTEX
  8
BottomCopper
 10
447.802000
 20
339.509100
  0
SEQEND
  0
POLYLINE
  8
BottomCopper
 66
1
 10
0.000000
 20
0.000000
 30
0.000000
 40
0.381000
 41
0.381000
 70
1
  0
VERTEX
  8
BottomCopper
 10
446.913000
 20
339.509100
  0
VERTEX
  8
BottomCopper
 10
446.913000
 20
340.906100
  0
VERTEX
  8
BottomCopper
 10
446.532000
 20
340.906100
  0
VERTEX
  8
BottomCopper
 10
446.532000
 20
339.509100
  0
SEQEND
  0
POLYLINE
  8
BottomCopper
 66
1
 10
0.000000
 20
0.000000
 30
0.000000
 40
0.381000
 41
0.381000
 70
1
  0
VERTEX
  8
BottomCopper
 10
445.643000
 20
339.509100
  0
VERTEX
  8
BottomCopper
 10
445.643000
 20
340.906100
  0
VERTEX
  8
BottomCopper
 10
445.262000
 20
340.906100
  0
VERTEX
  8
BottomCopper
 10
445.262000
 20
339.509100
  0
SEQEND
  0
POLYLINE
  8
BottomCopper
 66
1
 10
0.000000
 20
0.000000
 30
0.000000
 40
0.508000
 41
0.508000
 70
1
  0
VERTEX
  8
BottomCopper
 10
360.108500
 20
367.004600
  0
VERTEX
  8
BottomCopper
 10
360.108500
 20
368.274600
  0
VERTEX
  8
BottomCopper
 10
359.600500
 20
368.274600
  0
VERTEX
  8
BottomCopper
 10
359.600500
 20
367.004600
  0
SEQEND
  0
POLYLINE
  8
BottomCopper
 66
1
 10
0.000000
 20
0.000000
 30
0.000000
 40
0.508000
 41
0.508000
 70
1
  0
VERTEX
  8
BottomCopper
 10
362.394500
 20
367.004600
  0
VERTEX
  8
BottomCopper
 10
362.394500
 20
368.274600
  0
VERTEX
  8
BottomCopper
 10
361.886500
 20
368.274600
  0
VERTEX
  8
BottomCopper
 10
361.886500
 20
367.004600
  0
SEQEND
  0
POLYLINE
  8
BottomCopper
 66
1
 10
0.000000
 20
0.000000
 30
0.000000
 40
0.508000
 41
0.508000
 70
1
  0
VERTEX
  8
BottomCopper
 10
364.680500
 20
367.004600
  0
VERTEX
  8
BottomCopper
 10
364.680500
 20
368.274600
  0
VERTEX
  8
BottomCopper
 10
364.172500
 20
368.274600
  0
VERTEX
  8
BottomCopper
 10
364.172500
 20
367.004600
  0
SEQEND
  0
POLYLINE
  8
BottomCopper
 66
1
 10
0.000000
 20
0.000000
 30
0.000000
 40
2.476500
 41
2.476500
 70
1
  0
VERTEX
  8
BottomCopper
 10
364.077250
 20
360.051350
  0
VERTEX
  8
BottomCopper
 10
364.077250
 20
362.527850
  0
VERTEX
  8
BottomCopper
 10
360.203750
 20
362.527850
  0
VERTEX
  8
BottomCopper
 10
360.203750
 20
360.051350
  0
SEQEND
  0
POLYLINE
  8
BottomCopper
 66
1
 10
0.000000
 20
0.000000
 30
0.000000
 40
0.762000
 41
0.762000
 70
1
  0
VERTEX
  8
BottomCopper
 42
1.000000
 10
336.003900
 20
338.836000
  0
VERTEX
  8
BottomCopper
 42
1.000000
 10
336.765900
 20
338.836000
  0
SEQEND
  0
POLYLINE
  8
BottomCopper
 66
1
 10
0.000000
 20
0.000000
 30
0.000000
 40
0.762000
 41
0.762000
 70
1
  0
VERTEX
  8
BottomCopper
 42
1.000000
 10
336.003900
 20
341.376000
  0
VERTEX
  8
BottomCopper
 42
1.000000
 10
336.765900
 20
341.376000
  0
SEQEND
  0
POLYLINE
  8
BottomCopper
 66
1
 10
0.000000
 20
0.000000
 30
0.000000
 40
0.762000
 41
0.762000
 70
1
  0
VERTEX
  8
BottomCopper
 10
379.691900
 20
353.415600
  0
VERTEX
  8
BottomCopper
 10
379.691900
 20
354.177600
  0
VERTEX
  8
BottomCopper
 10
378.929900
 20
354.177600
  0
VERTEX
  8
BottomCopper
 10
378.929900
 20
353.415600
  0
SEQEND
  0
POLYLINE
  8
BottomCopper
 66
1
 10
0.000000
 20
0.000000
 30
0.000000
 40
0.762000
 41
0.762000
 70
1
  0
VERTEX
  8
BottomCopper
 10
384.187700
 20
353.415600
  0
VERTEX
  8
BottomCopper
 10
384.187700
 20
354.177600
  0
VERTEX
  8
BottomCopper
 10
383.425700
 20
354.177600
  0
VERTEX
  8
BottomCopper
 10
383.425700
 20
353.415600
  0
SEQEND
  0
POLYLINE
  8
BottomCopper
 66
1
 10
0.000000
 20
0.000000
 30
0.000000
 40
0.762000
 41
0.762000
 70
1
  0
VERTEX
  8
BottomCopper
 10
369.506500
 20
367.665000
  0
VERTEX
  8
BottomCopper
 10
369.506500
 20
368.427000
  0
VERTEX
  8
BottomCopper
 10
368.744500
 20
368.427000
  0
VERTEX
  8
BottomCopper
 10
368.744500
 20
367.665000
  0
SEQEND
  0
POLYLINE
  8
BottomCopper
 66
1
 10
0.000000
 20
0.000000
 30
0.000000
 40
0.762000
 41
0.762000
 70
1
  0
VERTEX
  8
BottomCopper
 10
369.506500
 20
372.160800
  0
VERTEX
  8
BottomCopper
 10
369.506500
 20
372.922800
  0
VERTEX
  8
BottomCopper
 10
368.744500
 20
372.922800
  0
VERTEX
  8
BottomCopper
 10
368.744500
 20
372.160800
  0
SEQEND
  0
POLYLINE
  8
BottomCopper
 66
1
 10
0.000000
 20
0.000000
 30
0.000000
 40
0.762000
 41
0.762000
 70
1
  0
VERTEX
  8
BottomCopper
 10
439.305700
 20
357.225600
  0
VERTEX
  8
BottomCopper
 10
439.305700
 20
360.527600
  0
VERTEX
  8
BottomCopper
 10
438.543700
 20
360.527600
  0
VERTEX
  8
BottomCopper
 10
438.543700
 20
357.225600
  0
SEQEND
  0
POLYLINE
  8
BottomCopper
 66
1
 10
0.000000
 20
0.000000
 30
0.000000
 40
0.762000
 41
0.762000
 70
1
  0
VERTEX
  8
BottomCopper
 10
436.816500
 20
357.225600
  0
VERTEX
  8
BottomCopper
 10
436.816500
 20
360.527600
  0
VERTEX
  8
BottomCopper
 10
436.054500
 20
360.527600
  0
VERTEX
  8
BottomCopper
 10
436.054500
 20
357.225600
  0
SEQEND
  0
POLYLINE
  8
BottomCopper
 66
1
 10
0.000000
 20
0.000000
 30
0.000000
 40
0.762000
 41
0.762000
 70
1
  0
VERTEX
  8
BottomCopper
 10
434.301900
 20
357.225600
  0
VERTEX
  8
BottomCopper
 10
434.301900
 20
360.527600
  0
VERTEX
  8
BottomCopper
 10
433.539900
 20
360.527600
  0
VERTEX
  8
BottomCopper
 10
433.539900
 20
357.225600
  0
SEQEND
  0
POLYLINE
  8
BottomCopper
 66
1
 10
0.000000
 20
0.000000
 30
0.000000
 40
0.508000
 41
0.508000
 70
1
  0
VERTEX
  8
BottomCopper
 10
347.662500
 20
374.116600
  0
VERTEX
  8
BottomCopper
 10
347.662500
 20
374.624600
  0
VERTEX
  8
BottomCopper
 10
346.138500
 20
374.624600
  0
VERTEX
  8
BottomCopper
 10
346.138500
 20
374.116600
  0
SEQEND
  0
POLYLINE
  8
BottomCopper
 66
1
 10
0.000000
 20
0.000000
 30
0.000000
 40
0.508000
 41
0.508000
 70
1
  0
VERTEX
  8
BottomCopper
 10
347.662500
 20
371.322600
  0
VERTEX
  8
BottomCopper
 10
347.662500
 20
371.830600
  0
VERTEX
  8
BottomCopper
 10
346.138500
 20
371.830600
  0
VERTEX
  8
BottomCopper
 10
346.138500
 20
371.322600
  0
SEQEND
  0
POLYLINE
  8
BottomCopper
 66
1
 10
0.000000
 20
0.000000
 30
0.000000
 40
0.508000
 41
0.508000
 70
1
  0
VERTEX
  8
BottomCopper
 10
351.472500
 20
374.116600
  0
VERTEX
  8
BottomCopper
 10
351.472500
 20
374.624600
  0
VERTEX
  8
BottomCopper
 10
349.948500
 20
374.624600
  0
VERTEX
  8
BottomCopper
 10
349.948500
 20
374.116600
  0
SEQEND
  0
POLYLINE
  8
BottomCopper
 66
1
 10
0.000000
 20
0.000000
 30
0.000000
 40
0.508000
 41
0.508000
 70
1
  0
VERTEX
  8
BottomCopper
 10
351.472500
 20
371.322600
  0
VERTEX
  8
BottomCopper
 10
351.472500
 20
371.830600
  0
VERTEX
  8
BottomCopper
 10
349.948500
 20
371.830600
  0
VERTEX
  8
BottomCopper
 10
349.948500
 20
371.322600
  0
SEQEND
  0
POLYLINE
  8
BottomCopper
 66
1
 10
0.000000
 20
0.000000
 30
0.000000
 40
0.508000
 41
0.508000
 70
1
  0
VERTEX
  8
BottomCopper
 10
355.282500
 20
374.116600
  0
VERTEX
  8
BottomCopper
 10
355.282500
 20
374.624600
  0
VERTEX
  8
BottomCopper
 10
353.758500
 20
374.624600
  0
VERTEX
  8
BottomCopper
 10
353.758500
 20
374.116600
  0
SEQEND
  0
POLYLINE
  8
BottomCopper
 66
1
 10
0.000000
 20
0.000000
 30
0.000000
 40
0.508000
 41
0.508000
 70
1
  0
VERTEX
  8
BottomCopper
 10
355.282500
 20
371.322600
  0
VERTEX
  8
BottomCopper
 10
355.282500
 20
371.830600
  0
VERTEX
  8
BottomCopper
 10
353.758500
 20
371.830600
  0
VERTEX
  8
BottomCopper
 10
353.758500
 20
371.322600
  0
SEQEND
  0
POLYLINE
  8
BottomCopper
 66
1
 10
0.000000
 20
0.000000
 30
0.000000
 40
0.444500
 41
0.444500
 70
1
  0
VERTEX
  8
BottomCopper
 10
420.465250
 20
363.988350
  0
VERTEX
  8
BottomCopper
 10
420.465250
 20
364.432850
  0
VERTEX
  8
BottomCopper
 10
419.385750
 20
364.432850
  0
VERTEX
  8
BottomCopper
 10
419.385750
 20
363.988350
  0
SEQEND
  0
POLYLINE
  8
BottomCopper
 66
1
 10
0.000000
 20
0.000000
 30
0.000000
 40
0.444500
 41
0.444500
 70
1
  0
VERTEX
  8
BottomCopper
 10
420.465250
 20
366.020350
  0
VERTEX
  8
BottomCopper
 10
420.465250
 20
366.464850
  0
VERTEX
  8
BottomCopper
 10
419.385750
 20
366.464850
  0
VERTEX
  8
BottomCopper
 10
419.385750
 20
366.020350
  0
SEQEND
  0
POLYLINE
  8
BottomCopper
 66
1
 10
0.000000
 20
0.000000
 30
0.000000
 40
0.444500
 41
0.444500
 70
1
  0
VERTEX
  8
BottomCopper
 10
402.685250
 20
355.733350
  0
VERTEX
  8
BottomCopper
 10
402.685250
 20
356.177850
  0
VERTEX
  8
BottomCopper
 10
401.605750
 20
356.177850
  0
VERTEX
  8
BottomCopper
 10
401.605750
 20
355.733350
  0
SEQEND
  0
POLYLINE
  8
BottomCopper
 66
1
 10
0.000000
 20
0.000000
 30
0.000000
 40
0.444500
 41
0.444500
 70
1
  0
VERTEX
  8
BottomCopper
 10
402.685250
 20
357.765350
  0
VERTEX
  8
BottomCopper
 10
402.685250
 20
358.209850
  0
VERTEX
  8
BottomCopper
 10
401.605750
 20
358.209850
  0
VERTEX
  8
BottomCopper
 10
401.605750
 20
357.765350
  0
SEQEND
  0
POLYLINE
  8
BottomCopper
 66
1
 10
0.000000
 20
0.000000
 30
0.000000
 40
0.444500
 41
0.444500
 70
1
  0
VERTEX
  8
BottomCopper
 10
444.595250
 20
373.640350
  0
VERTEX
  8
BottomCopper
 10
444.595250
 20
374.084850
  0
VERTEX
  8
BottomCopper
 10
443.515750
 20
374.084850
  0
VERTEX
  8
BottomCopper
 10
443.515750
 20
373.640350
  0
SEQEND
  0
POLYLINE
  8
BottomCopper
 66
1
 10
0.000000
 20
0.000000
 30
0.000000
 40
0.444500
 41
0.444500
 70
1
  0
VERTEX
  8
BottomCopper
 10
444.595250
 20
371.608350
  0
VERTEX
  8
BottomCopper
 10
444.595250
 20
372.052850
  0
VERTEX
  8
BottomCopper
 10
443.515750
 20
372.052850
  0
VERTEX
  8
BottomCopper
 10
443.515750
 20
371.608350
  0
SEQEND
  0
POLYLINE
  8
BottomCopper
 66
1
 10
0.000000
 20
0.000000
 30
0.000000
 40
0.444500
 41
0.444500
 70
1
  0
VERTEX
  8
BottomCopper
 10
341.610950
 20
337.051650
  0
VERTEX
  8
BottomCopper
 10
341.610950
 20
338.131150
  0
VERTEX
  8
BottomCopper
 10
341.166450
 20
338.131150
  0
VERTEX
  8
BottomCopper
 10
341.166450
 20
337.051650
  0
SEQEND
  0
POLYLINE
  8
BottomCopper
 66
1
 10
0.000000
 20
0.000000
 30
0.000000
 40
0.444500
 41
0.444500
 70
1
  0
VERTEX
  8
BottomCopper
 10
343.642950
 20
337.051650
  0
VERTEX
  8
BottomCopper
 10
343.642950
 20
338.131150
  0
VERTEX
  8
BottomCopper
 10
343.198450
 20
338.131150
  0
VERTEX
  8
BottomCopper
 10
343.198450
 20
337.051650
  0
SEQEND
  0
POLYLINE
  8
BottomCopper
 66
1
 10
0.000000
 20
0.000000
 30
0.000000
 40
0.444500
 41
0.444500
 70
1
  0
VERTEX
  8
BottomCopper
 10
393.160250
 20
365.385350
  0
VERTEX
  8
BottomCopper
 10
393.160250
 20
365.829850
  0
VERTEX
  8
BottomCopper
 10
392.080750
 20
365.829850
  0
VERTEX
  8
BottomCopper
 10
392.080750
 20
365.385350
  0
SEQEND
  0
POLYLINE
  8
BottomCopper
 66
1
 10
0.000000
 20
0.000000
 30
0.000000
 40
0.444500
 41
0.444500
 70
1
  0
VERTEX
  8
BottomCopper
 10
393.160250
 20
363.353350
  0
VERTEX
  8
BottomCopper
 10
393.160250
 20
363.797850
  0
VERTEX
  8
BottomCopper
 10
392.080750
 20
363.797850
  0
VERTEX
  8
BottomCopper
 10
392.080750
 20
363.353350
  0
SEQEND
  0
POLYLINE
  8
BottomCopper
 66
1
 10
0.000000
 20
0.000000
 30
0.000000
 40
0.508000
 41
0.508000
 70
1
  0
VERTEX
  8
BottomCopper
 10
459.422500
 20
344.271600
  0
VERTEX
  8
BottomCopper
 10
459.422500
 20
344.779600
  0
VERTEX
  8
BottomCopper
 10
457.898500
 20
344.779600
  0
VERTEX
  8
BottomCopper
 10
457.898500
 20
344.271600
  0
SEQEND
  0
POLYLINE
  8
BottomCopper
 66
1
 10
0.000000
 20
0.000000
 30
0.000000
 40
0.508000
 41
0.508000
 70
1
  0
VERTEX
  8
BottomCopper
 10
459.422500
 20
341.477600
  0
VERTEX
  8
BottomCopper
 10
459.422500
 20
341.985600
  0
VERTEX
  8
BottomCopper
 10
457.898500
 20
341.985600
  0
VERTEX
  8
BottomCopper
 10
457.898500
 20
341.477600
  0
SEQEND
  0
POLYLINE
  8
BottomCopper
 66
1
 10
0.000000
 20
0.000000
 30
0.000000
 40
0.508000
 41
0.508000
 70
1
  0
VERTEX
  8
BottomCopper
 10
439.102500
 20
341.223600
  0
VERTEX
  8
BottomCopper
 10
439.102500
 20
341.731600
  0
VERTEX
  8
BottomCopper
 10
437.578500
 20
341.731600
  0
VERTEX
  8
BottomCopper
 10
437.578500
 20
341.223600
  0
SEQEND
  0
POLYLINE
  8
BottomCopper
 66
1
 10
0.000000
 20
0.000000
 30
0.000000
 40
0.508000
 41
0.508000
 70
1
  0
VERTEX
  8
BottomCopper
 10
439.102500
 20
344.017600
  0
VERTEX
  8
BottomCopper
 10
439.102500
 20
344.525600
  0
VERTEX
  8
BottomCopper
 10
437.578500
 20
344.525600
  0
VERTEX
  8
BottomCopper
 10
437.578500
 20
344.017600
  0
SEQEND
  0
POLYLINE
  8
BottomCopper
 66
1
 10
0.000000
 20
0.000000
 30
0.000000
 40
0.444500
 41
0.444500
 70
1
  0
VERTEX
  8
BottomCopper
 10
395.065250
 20
339.858350
  0
VERTEX
  8
BottomCopper
 10
395.065250
 20
340.302850
  0
VERTEX
  8
BottomCopper
 10
393.985750
 20
340.302850
  0
VERTEX
  8
BottomCopper
 10
393.985750
 20
339.858350
  0
SEQEND
  0
POLYLINE
  8
BottomCopper
 66
1
 10
0.000000
 20
0.000000
 30
0.000000
 40
0.444500
 41
0.444500
 70
1
  0
VERTEX
  8
BottomCopper
 10
395.065250
 20
341.890350
  0
VERTEX
  8
BottomCopper
 10
395.065250
 20
342.334850
  0
VERTEX
  8
BottomCopper
 10
393.985750
 20
342.334850
  0
VERTEX
  8
BottomCopper
 10
393.985750
 20
341.890350
  0
SEQEND
  0
POLYLINE
  8
BottomCopper
 66
1
 10
0.000000
 20
0.000000
 30
0.000000
 40
0.444500
 41
0.444500
 70
1
  0
VERTEX
  8
BottomCopper
 10
414.115250
 20
340.620350
  0
VERTEX
  8
BottomCopper
 10
414.115250
 20
341.064850
  0
VERTEX
  8
BottomCopper
 10
413.035750
 20
341.064850
  0
VERTEX
  8
BottomCopper
 10
413.035750
 20
340.620350
  0
SEQEND
  0
POLYLINE
  8
BottomCopper
 66
1
 10
0.000000
 20
0.000000
 30
0.000000
 40
0.444500
 41
0.444500
 70
1
  0
VERTEX
  8
BottomCopper
 10
414.115250
 20
338.588350
  0
VERTEX
  8
BottomCopper
 10
414.115250
 20
339.032850
  0
VERTEX
  8
BottomCopper
 10
413.035750
 20
339.032850
  0
VERTEX
  8
BottomCopper
 10
413.035750
 20
338.588350
  0
SEQEND
  0
POLYLINE
  8
BottomCopper
 66
1
 10
0.000000
 20
0.000000
 30
0.000000
 40
0.444500
 41
0.444500
 70
1
  0
VERTEX
  8
BottomCopper
 10
459.200250
 20
338.715350
  0
VERTEX
  8
BottomCopper
 10
459.200250
 20
339.159850
  0
VERTEX
  8
BottomCopper
 10
458.120750
 20
339.159850
  0
VERTEX
  8
BottomCopper
 10
458.120750
 20
338.715350
  0
SEQEND
  0
POLYLINE
  8
BottomCopper
 66
1
 10
0.000000
 20
0.000000
 30
0.000000
 40
0.444500
 41
0.444500
 70
1
  0
VERTEX
  8
BottomCopper
 10
459.200250
 20
336.683350
  0
VERTEX
  8
BottomCopper
 10
459.200250
 20
337.127850
  0
VERTEX
  8
BottomCopper
 10
458.120750
 20
337.127850
  0
VERTEX
  8
BottomCopper
 10
458.120750
 20
336.683350
  0
SEQEND
  0
POLYLINE
  8
BottomCopper
 66
1
 10
0.000000
 20
0.000000
 30
0.000000
 40
0.444500
 41
0.444500
 70
1
  0
VERTEX
  8
BottomCopper
 10
442.690250
 20
338.715350
  0
VERTEX
  8
BottomCopper
 10
442.690250
 20
339.159850
  0
VERTEX
  8
BottomCopper
 10
441.610750
 20
339.159850
  0
VERTEX
  8
BottomCopper
 10
441.610750
 20
338.715350
  0
SEQEND
  0
POLYLINE
  8
BottomCopper
 66
1
 10
0.000000
 20
0.000000
 30
0.000000
 40
0.444500
 41
0.444500
 70
1
  0
VERTEX
  8
BottomCopper
 10
442.690250
 20
336.683350
  0
VERTEX
  8
BottomCopper
 10
442.690250
 20
337.127850
  0
VERTEX
  8
BottomCopper
 10
441.610750
 20
337.127850
  0
VERTEX
  8
BottomCopper
 10
441.610750
 20
336.683350
  0
SEQEND
  0
POLYLINE
  8
BottomCopper
 66
1
 10
0.000000
 20
0.000000
 30
0.000000
 40
0.444500
 41
0.444500
 70
1
  0
VERTEX
  8
BottomCopper
 10
430.625250
 20
340.620350
  0
VERTEX
  8
BottomCopper
 10
430.625250
 20
341.064850
  0
VERTEX
  8
BottomCopper
 10
429.545750
 20
341.064850
  0
VERTEX
  8
BottomCopper
 10
429.545750
 20
340.620350
  0
SEQEND
  0
POLYLINE
  8
BottomCopper
 66
1
 10
0.000000
 20
0.000000
 30
0.000000
 40
0.444500
 41
0.444500
 70
1
  0
VERTEX
  8
BottomCopper
 10
430.625250
 20
338.588350
  0
VERTEX
  8
BottomCopper
 10
430.625250
 20
339.032850
  0
VERTEX
  8
BottomCopper
 10
429.545750
 20
339.032850
  0
VERTEX
  8
BottomCopper
 10
429.545750
 20
338.588350
  0
SEQEND
  0
POLYLINE
  8
BottomCopper
 66
1
 10
0.000000
 20
0.000000
 30
0.000000
 40
0.444500
 41
0.444500
 70
1
  0
VERTEX
  8
BottomCopper
 10
367.696750
 20
360.876850
  0
VERTEX
  8
BottomCopper
 10
367.696750
 20
361.956350
  0
VERTEX
  8
BottomCopper
 10
367.252250
 20
361.956350
  0
VERTEX
  8
BottomCopper
 10
367.252250
 20
360.876850
  0
SEQEND
  0
POLYLINE
  8
BottomCopper
 66
1
 10
0.000000
 20
0.000000
 30
0.000000
 40
0.444500
 41
0.444500
 70
1
  0
VERTEX
  8
BottomCopper
 10
369.728750
 20
360.876850
  0
VERTEX
  8
BottomCopper
 10
369.728750
 20
361.956350
  0
VERTEX
  8
BottomCopper
 10
369.284250
 20
361.956350
  0
VERTEX
  8
BottomCopper
 10
369.284250
 20
360.876850
  0
SEQEND
  0
POLYLINE
  8
BottomCopper
 66
1
 10
0.000000
 20
0.000000
 30
0.000000
 40
0.444500
 41
0.444500
 70
1
  0
VERTEX
  8
BottomCopper
 10
356.965250
 20
367.290350
  0
VERTEX
  8
BottomCopper
 10
356.965250
 20
367.734850
  0
VERTEX
  8
BottomCopper
 10
355.885750
 20
367.734850
  0
VERTEX
  8
BottomCopper
 10
355.885750
 20
367.290350
  0
SEQEND
  0
POLYLINE
  8
BottomCopper
 66
1
 10
0.000000
 20
0.000000
 30
0.000000
 40
0.444500
 41
0.444500
 70
1
  0
VERTEX
  8
BottomCopper
 10
356.965250
 20
365.258350
  0
VERTEX
  8
BottomCopper
 10
356.965250
 20
365.702850
  0
VERTEX
  8
BottomCopper
 10
355.885750
 20
365.702850
  0
VERTEX
  8
BottomCopper
 10
355.885750
 20
365.258350
  0
SEQEND
  0
POLYLINE
  8
BottomCopper
 66
1
 10
0.000000
 20
0.000000
 30
0.000000
 40
0.444500
 41
0.444500
 70
1
  0
VERTEX
  8
BottomCopper
 10
356.965250
 20
362.845350
  0
VERTEX
  8
BottomCopper
 10
356.965250
 20
363.289850
  0
VERTEX
  8
BottomCopper
 10
355.885750
 20
363.289850
  0
VERTEX
  8
BottomCopper
 10
355.885750
 20
362.845350
  0
SEQEND
  0
POLYLINE
  8
BottomCopper
 66
1
 10
0.000000
 20
0.000000
 30
0.000000
 40
0.444500
 41
0.444500
 70
1
  0
VERTEX
  8
BottomCopper
 10
356.965250
 20
360.813350
  0
VERTEX
  8
BottomCopper
 10
356.965250
 20
361.257850
  0
VERTEX
  8
BottomCopper
 10
355.885750
 20
361.257850
  0
VERTEX
  8
BottomCopper
 10
355.885750
 20
360.813350
  0
SEQEND
  0
POLYLINE
  8
BottomCopper
 66
1
 10
0.000000
 20
0.000000
 30
0.000000
 40
0.444500
 41
0.444500
 70
1
  0
VERTEX
  8
BottomCopper
 10
367.696750
 20
364.051850
  0
VERTEX
  8
BottomCopper
 10
367.696750
 20
365.131350
  0
VERTEX
  8
BottomCopper
 10
367.252250
 20
365.131350
  0
VERTEX
  8
BottomCopper
 10
367.252250
 20
364.051850
  0
SEQEND
  0
POLYLINE
  8
BottomCopper
 66
1
 10
0.000000
 20
0.000000
 30
0.000000
 40
0.444500
 41
0.444500
 70
1
  0
VERTEX
  8
BottomCopper
 10
369.728750
 20
364.051850
  0
VERTEX
  8
BottomCopper
 10
369.728750
 20
365.131350
  0
VERTEX
  8
BottomCopper
 10
369.284250
 20
365.131350
  0
VERTEX
  8
BottomCopper
 10
369.284250
 20
364.051850
  0
SEQEND
  0
POLYLINE
  8
BottomCopper
 66
1
 10
0.000000
 20
0.000000
 30
0.000000
 40
0.444500
 41
0.444500
 70
1
  0
VERTEX
  8
BottomCopper
 10
352.583750
 20
367.226850
  0
VERTEX
  8
BottomCopper
 10
352.583750
 20
368.306350
  0
VERTEX
  8
BottomCopper
 10
352.139250
 20
368.306350
  0
VERTEX
  8
BottomCopper
 10
352.139250
 20
367.226850
  0
SEQEND
  0
POLYLINE
  8
BottomCopper
 66
1
 10
0.000000
 20
0.000000
 30
0.000000
 40
0.444500
 41
0.444500
 70
1
  0
VERTEX
  8
BottomCopper
 10
350.551750
 20
367.226850
  0
VERTEX
  8
BottomCopper
 10
350.551750
 20
368.306350
  0
VERTEX
  8
BottomCopper
 10
350.107250
 20
368.306350
  0
VERTEX
  8
BottomCopper
 10
350.107250
 20
367.226850
  0
SEQEND
  0
POLYLINE
  8
BottomCopper
 66
1
 10
0.000000
 20
0.000000
 30
0.000000
 40
0.508000
 41
0.508000
 70
1
  0
VERTEX
  8
BottomCopper
 10
463.232500
 20
344.271600
  0
VERTEX
  8
BottomCopper
 10
463.232500
 20
344.779600
  0
VERTEX
  8
BottomCopper
 10
461.708500
 20
344.779600
  0
VERTEX
  8
BottomCopper
 10
461.708500
 20
344.271600
  0
SEQEND
  0
POLYLINE
  8
BottomCopper
 66
1
 10
0.000000
 20
0.000000
 30
0.000000
 40
0.508000
 41
0.508000
 70
1
  0
VERTEX
  8
BottomCopper
 10
463.232500
 20
341.477600
  0
VERTEX
  8
BottomCopper
 10
463.232500
 20
341.985600
  0
VERTEX
  8
BottomCopper
 10
461.708500
 20
341.985600
  0
VERTEX
  8
BottomCopper
 10
461.708500
 20
341.477600
  0
SEQEND
  0
POLYLINE
  8
BottomCopper
 66
1
 10
0.000000
 20
0.000000
 30
0.000000
 40
0.508000
 41
0.508000
 70
1
  0
VERTEX
  8
BottomCopper
 10
442.912500
 20
341.223600
  0
VERTEX
  8
BottomCopper
 10
442.912500
 20
341.731600
  0
VERTEX
  8
BottomCopper
 10
441.388500
 20
341.731600
  0
VERTEX
  8
BottomCopper
 10
441.388500
 20
341.223600
  0
SEQEND
  0
POLYLINE
  8
BottomCopper
 66
1
 10
0.000000
 20
0.000000
 30
0.000000
 40
0.508000
 41
0.508000
 70
1
  0
VERTEX
  8
BottomCopper
 10
442.912500
 20
344.017600
  0
VERTEX
  8
BottomCopper
 10
442.912500
 20
344.525600
  0
VERTEX
  8
BottomCopper
 10
441.388500
 20
344.525600
  0
VERTEX
  8
BottomCopper
 10
441.388500
 20
344.017600
  0
SEQEND
  0
POLYLINE
  8
BottomCopper
 66
1
 10
0.000000
 20
0.000000
 30
0.000000
 40
0.444500
 41
0.444500
 70
1
  0
VERTEX
  8
BottomCopper
 10
406.495250
 20
355.733350
  0
VERTEX
  8
BottomCopper
 10
406.495250
 20
356.177850
  0
VERTEX
  8
BottomCopper
 10
405.415750
 20
356.177850
  0
VERTEX
  8
BottomCopper
 10
405.415750
 20
355.733350
  0
SEQEND
  0
POLYLINE
  8
BottomCopper
 66
1
 10
0.000000
 20
0.000000
 30
0.000000
 40
0.444500
 41
0.444500
 70
1
  0
VERTEX
  8
BottomCopper
 10
406.495250
 20
357.765350
  0
VERTEX
  8
BottomCopper
 10
406.495250
 20
358.209850
  0
VERTEX
  8
BottomCopper
 10
405.415750
 20
358.209850
  0
VERTEX
  8
BottomCopper
 10
405.415750
 20
357.765350
  0
SEQEND
  0
POLYLINE
  8
BottomCopper
 66
1
 10
0.000000
 20
0.000000
 30
0.000000
 40
0.444500
 41
0.444500
 70
1
  0
VERTEX
  8
BottomCopper
 10
333.127350
 20
348.557850
  0
VERTEX
  8
BottomCopper
 10
333.127350
 20
349.637350
  0
VERTEX
  8
BottomCopper
 10
332.682850
 20
349.637350
  0
VERTEX
  8
BottomCopper
 10
332.682850
 20
348.557850
  0
SEQEND
  0
POLYLINE
  8
BottomCopper
 66
1
 10
0.000000
 20
0.000000
 30
0.000000
 40
0.444500
 41
0.444500
 70
1
  0
VERTEX
  8
BottomCopper
 10
331.095350
 20
348.557850
  0
VERTEX
  8
BottomCopper
 10
331.095350
 20
349.637350
  0
VERTEX
  8
BottomCopper
 10
330.650850
 20
349.637350
  0
VERTEX
  8
BottomCopper
 10
330.650850
 20
348.557850
  0
SEQEND
  0
POLYLINE
  8
BottomCopper
 66
1
 10
0.000000
 20
0.000000
 30
0.000000
 40
1.016000
 41
1.016000
 70
1
  0
VERTEX
  8
BottomCopper
 10
333.895700
 20
344.601800
  0
VERTEX
  8
BottomCopper
 10
333.895700
 20
345.617800
  0
VERTEX
  8
BottomCopper
 10
332.879700
 20
345.617800
  0
VERTEX
  8
BottomCopper
 10
332.879700
 20
344.601800
  0
SEQEND
  0
POLYLINE
  8
BottomCopper
 66
1
 10
0.000000
 20
0.000000
 30
0.000000
 40
1.016000
 41
1.016000
 70
1
  0
VERTEX
  8
BottomCopper
 10
330.390500
 20
344.601800
  0
VERTEX
  8
BottomCopper
 10
330.390500
 20
345.617800
  0
VERTEX
  8
BottomCopper
 10
329.374500
 20
345.617800
  0
VERTEX
  8
BottomCopper
 10
329.374500
 20
344.601800
  0
SEQEND
  0
POLYLINE
  8
BottomCopper
 66
1
 10
0.000000
 20
0.000000
 30
0.000000
 40
0.444500
 41
0.444500
 70
1
  0
VERTEX
  8
BottomCopper
 10
383.635250
 20
347.478350
  0
VERTEX
  8
BottomCopper
 10
383.635250
 20
347.922850
  0
VERTEX
  8
BottomCopper
 10
382.555750
 20
347.922850
  0
VERTEX
  8
BottomCopper
 10
382.555750
 20
347.478350
  0
SEQEND
  0
POLYLINE
  8
BottomCopper
 66
1
 10
0.000000
 20
0.000000
 30
0.000000
 40
0.444500
 41
0.444500
 70
1
  0
VERTEX
  8
BottomCopper
 10
383.635250
 20
349.510350
  0
VERTEX
  8
BottomCopper
 10
383.635250
 20
349.954850
  0
VERTEX
  8
BottomCopper
 10
382.555750
 20
349.954850
  0
VERTEX
  8
BottomCopper
 10
382.555750
 20
349.510350
  0
SEQEND
  0
POLYLINE
  8
BottomCopper
 66
1
 10
0.000000
 20
0.000000
 30
0.000000
 40
0.444500
 41
0.444500
 70
1
  0
VERTEX
  8
BottomCopper
 10
416.020250
 20
346.843350
  0
VERTEX
  8
BottomCopper
 10
416.020250
 20
347.287850
  0
VERTEX
  8
BottomCopper
 10
414.940750
 20
347.287850
  0
VERTEX
  8
BottomCopper
 10
414.940750
 20
346.843350
  0
SEQEND
  0
POLYLINE
  8
BottomCopper
 66
1
 10
0.000000
 20
0.000000
 30
0.000000
 40
0.444500
 41
0.444500
 70
1
  0
VERTEX
  8
BottomCopper
 10
416.020250
 20
348.875350
  0
VERTEX
  8
BottomCopper
 10
416.020250
 20
349.319850
  0
VERTEX
  8
BottomCopper
 10
414.940750
 20
349.319850
  0
VERTEX
  8
BottomCopper
 10
414.940750
 20
348.875350
  0
SEQEND
  0
POLYLINE
  8
BottomCopper
 66
1
 10
0.000000
 20
0.000000
 30
0.000000
 40
0.444500
 41
0.444500
 70
1
  0
VERTEX
  8
BottomCopper
 10
452.786750
 20
363.416850
  0
VERTEX
  8
BottomCopper
 10
452.786750
 20
364.496350
  0
VERTEX
  8
BottomCopper
 10
452.342250
 20
364.496350
  0
VERTEX
  8
BottomCopper
 10
452.342250
 20
363.416850
  0
SEQEND
  0
POLYLINE
  8
BottomCopper
 66
1
 10
0.000000
 20
0.000000
 30
0.000000
 40
0.444500
 41
0.444500
 70
1
  0
VERTEX
  8
BottomCopper
 10
454.818750
 20
363.416850
  0
VERTEX
  8
BottomCopper
 10
454.818750
 20
364.496350
  0
VERTEX
  8
BottomCopper
 10
454.374250
 20
364.496350
  0
VERTEX
  8
BottomCopper
 10
454.374250
 20
363.416850
  0
SEQEND
  0
POLYLINE
  8
BottomCopper
 66
1
 10
0.000000
 20
0.000000
 30
0.000000
 40
0.444500
 41
0.444500
 70
1
  0
VERTEX
  8
BottomCopper
 10
444.595250
 20
366.655350
  0
VERTEX
  8
BottomCopper
 10
444.595250
 20
367.099850
  0
VERTEX
  8
BottomCopper
 10
443.515750
 20
367.099850
  0
VERTEX
  8
BottomCopper
 10
443.515750
 20
366.655350
  0
SEQEND
  0
POLYLINE
  8
BottomCopper
 66
1
 10
0.000000
 20
0.000000
 30
0.000000
 40
0.444500
 41
0.444500
 70
1
  0
VERTEX
  8
BottomCopper
 10
444.595250
 20
364.623350
  0
VERTEX
  8
BottomCopper
 10
444.595250
 20
365.067850
  0
VERTEX
  8
BottomCopper
 10
443.515750
 20
365.067850
  0
VERTEX
  8
BottomCopper
 10
443.515750
 20
364.623350
  0
SEQEND
  0
POLYLINE
  8
BottomCopper
 66
1
 10
0.000000
 20
0.000000
 30
0.000000
 40
0.444500
 41
0.444500
 70
1
  0
VERTEX
  8
BottomCopper
 10
417.925250
 20
357.638350
  0
VERTEX
  8
BottomCopper
 10
417.925250
 20
358.082850
  0
VERTEX
  8
BottomCopper
 10
416.845750
 20
358.082850
  0
VERTEX
  8
BottomCopper
 10
416.845750
 20
357.638350
  0
SEQEND
  0
POLYLINE
  8
BottomCopper
 66
1
 10
0.000000
 20
0.000000
 30
0.000000
 40
0.444500
 41
0.444500
 70
1
  0
VERTEX
  8
BottomCopper
 10
417.925250
 20
359.670350
  0
VERTEX
  8
BottomCopper
 10
417.925250
 20
360.114850
  0
VERTEX
  8
BottomCopper
 10
416.845750
 20
360.114850
  0
VERTEX
  8
BottomCopper
 10
416.845750
 20
359.670350
  0
SEQEND
  0
POLYLINE
  8
BottomCopper
 66
1
 10
0.000000
 20
0.000000
 30
0.000000
 40
0.444500
 41
0.444500
 70
1
  0
VERTEX
  8
BottomCopper
 10
374.745250
 20
339.858350
  0
VERTEX
  8
BottomCopper
 10
374.745250
 20
340.302850
  0
VERTEX
  8
BottomCopper
 10
373.665750
 20
340.302850
  0
VERTEX
  8
BottomCopper
 10
373.665750
 20
339.858350
  0
SEQEND
  0
POLYLINE
  8
BottomCopper
 66
1
 10
0.000000
 20
0.000000
 30
0.000000
 40
0.444500
 41
0.444500
 70
1
  0
VERTEX
  8
BottomCopper
 10
374.745250
 20
341.890350
  0
VERTEX
  8
BottomCopper
 10
374.745250
 20
342.334850
  0
VERTEX
  8
BottomCopper
 10
373.665750
 20
342.334850
  0
VERTEX
  8
BottomCopper
 10
373.665750
 20
341.890350
  0
SEQEND
  0
POLYLINE
  8
BottomCopper
 66
1
 10
0.000000
 20
0.000000
 30
0.000000
 40
0.444500
 41
0.444500
 70
1
  0
VERTEX
  8
BottomCopper
 10
379.825250
 20
339.858350
  0
VERTEX
  8
BottomCopper
 10
379.825250
 20
340.302850
  0
VERTEX
  8
BottomCopper
 10
378.745750
 20
340.302850
  0
VERTEX
  8
BottomCopper
 10
378.745750
 20
339.858350
  0
SEQEND
  0
POLYLINE
  8
BottomCopper
 66
1
 10
0.000000
 20
0.000000
 30
0.000000
 40
0.444500
 41
0.444500
 70
1
  0
VERTEX
  8
BottomCopper
 10
379.825250
 20
341.890350
  0
VERTEX
  8
BottomCopper
 10
379.825250
 20
342.334850
  0
VERTEX
  8
BottomCopper
 10
378.745750
 20
342.334850
  0
VERTEX
  8
BottomCopper
 10
378.745750
 20
341.890350
  0
SEQEND
  0
POLYLINE
  8
BottomCopper
 66
1
 10
0.000000
 20
0.000000
 30
0.000000
 40
0.444500
 41
0.444500
 70
1
  0
VERTEX
  8
BottomCopper
 10
384.905250
 20
339.858350
  0
VERTEX
  8
BottomCopper
 10
384.905250
 20
340.302850
  0
VERTEX
  8
BottomCopper
 10
383.825750
 20
340.302850
  0
VERTEX
  8
BottomCopper
 10
383.825750
 20
339.858350
  0
SEQEND
  0
POLYLINE
  8
BottomCopper
 66
1
 10
0.000000
 20
0.000000
 30
0.000000
 40
0.444500
 41
0.444500
 70
1
  0
VERTEX
  8
BottomCopper
 10
384.905250
 20
341.890350
  0
VERTEX
  8
BottomCopper
 10
384.905250
 20
342.334850
  0
VERTEX
  8
BottomCopper
 10
383.825750
 20
342.334850
  0
VERTEX
  8
BottomCopper
 10
383.825750
 20
341.890350
  0
SEQEND
  0
POLYLINE
  8
BottomCopper
 66
1
 10
0.000000
 20
0.000000
 30
0.000000
 40
0.444500
 41
0.444500
 70
1
  0
VERTEX
  8
BottomCopper
 10
389.985250
 20
339.858350
  0
VERTEX
  8
BottomCopper
 10
389.985250
 20
340.302850
  0
VERTEX
  8
BottomCopper
 10
388.905750
 20
340.302850
  0
VERTEX
  8
BottomCopper
 10
388.905750
 20
339.858350
  0
SEQEND
  0
POLYLINE
  8
BottomCopper
 66
1
 10
0.000000
 20
0.000000
 30
0.000000
 40
0.444500
 41
0.444500
 70
1
  0
VERTEX
  8
BottomCopper
 10
389.985250
 20
341.890350
  0
VERTEX
  8
BottomCopper
 10
389.985250
 20
342.334850
  0
VERTEX
  8
BottomCopper
 10
388.905750
 20
342.334850
  0
VERTEX
  8
BottomCopper
 10
388.905750
 20
341.890350
  0
SEQEND
  0
POLYLINE
  8
BottomCopper
 66
1
 10
0.000000
 20
0.000000
 30
0.000000
 40
0.444500
 41
0.444500
 70
1
  0
VERTEX
  8
BottomCopper
 10
420.465250
 20
338.588350
  0
VERTEX
  8
BottomCopper
 10
420.465250
 20
339.032850
  0
VERTEX
  8
BottomCopper
 10
419.385750
 20
339.032850
  0
VERTEX
  8
BottomCopper
 10
419.385750
 20
338.588350
  0
SEQEND
  0
POLYLINE
  8
BottomCopper
 66
1
 10
0.000000
 20
0.000000
 30
0.000000
 40
0.444500
 41
0.444500
 70
1
  0
VERTEX
  8
BottomCopper
 10
420.465250
 20
340.620350
  0
VERTEX
  8
BottomCopper
 10
420.465250
 20
341.064850
  0
VERTEX
  8
BottomCopper
 10
419.385750
 20
341.064850
  0
VERTEX
  8
BottomCopper
 10
419.385750
 20
340.620350
  0
SEQEND
  0
POLYLINE
  8
BottomCopper
 66
1
 10
0.000000
 20
0.000000
 30
0.000000
 40
0.444500
 41
0.444500
 70
1
  0
VERTEX
  8
BottomCopper
 10
426.180250
 20
338.588350
  0
VERTEX
  8
BottomCopper
 10
426.180250
 20
339.032850
  0
VERTEX
  8
BottomCopper
 10
425.100750
 20
339.032850
  0
VERTEX
  8
BottomCopper
 10
425.100750
 20
338.588350
  0
SEQEND
  0
POLYLINE
  8
BottomCopper
 66
1
 10
0.000000
 20
0.000000
 30
0.000000
 40
0.444500
 41
0.444500
 70
1
  0
VERTEX
  8
BottomCopper
 10
426.180250
 20
340.620350
  0
VERTEX
  8
BottomCopper
 10
426.180250
 20
341.064850
  0
VERTEX
  8
BottomCopper
 10
425.100750
 20
341.064850
  0
VERTEX
  8
BottomCopper
 10
425.100750
 20
340.620350
  0
SEQEND
  0
POLYLINE
  8
BottomCopper
 66
1
 10
0.000000
 20
0.000000
 30
0.000000
 40
1.016000
 41
1.016000
 70
1
  0
VERTEX
  8
BottomCopper
 10
365.188500
 20
346.837000
  0
VERTEX
  8
BottomCopper
 10
365.188500
 20
347.853000
  0
VERTEX
  8
BottomCopper
 10
364.172500
 20
347.853000
  0
VERTEX
  8
BottomCopper
 10
364.172500
 20
346.837000
  0
SEQEND
  0
POLYLINE
  8
BottomCopper
 66
1
 10
0.000000
 20
0.000000
 30
0.000000
 40
1.016000
 41
1.016000
 70
1
  0
VERTEX
  8
BottomCopper
 10
365.188500
 20
350.342200
  0
VERTEX
  8
BottomCopper
 10
365.188500
 20
351.358200
  0
VERTEX
  8
BottomCopper
 10
364.172500
 20
351.358200
  0
VERTEX
  8
BottomCopper
 10
364.172500
 20
350.342200
  0
SEQEND
  0
POLYLINE
  8
BottomCopper
 66
1
 10
0.000000
 20
0.000000
 30
0.000000
 40
0.444500
 41
0.444500
 70
1
  0
VERTEX
  8
BottomCopper
 10
360.775250
 20
351.415350
  0
VERTEX
  8
BottomCopper
 10
360.775250
 20
351.859850
  0
VERTEX
  8
BottomCopper
 10
359.695750
 20
351.859850
  0
VERTEX
  8
BottomCopper
 10
359.695750
 20
351.415350
  0
SEQEND
  0
POLYLINE
  8
BottomCopper
 66
1
 10
0.000000
 20
0.000000
 30
0.000000
 40
0.444500
 41
0.444500
 70
1
  0
VERTEX
  8
BottomCopper
 10
360.775250
 20
349.383350
  0
VERTEX
  8
BottomCopper
 10
360.775250
 20
349.827850
  0
VERTEX
  8
BottomCopper
 10
359.695750
 20
349.827850
  0
VERTEX
  8
BottomCopper
 10
359.695750
 20
349.383350
  0
SEQEND
  0
POLYLINE
  8
BottomCopper
 66
1
 10
0.000000
 20
0.000000
 30
0.000000
 40
0.444500
 41
0.444500
 70
1
  0
VERTEX
  8
BottomCopper
 10
369.030250
 20
355.098350
  0
VERTEX
  8
BottomCopper
 10
369.030250
 20
355.542850
  0
VERTEX
  8
BottomCopper
 10
367.950750
 20
355.542850
  0
VERTEX
  8
BottomCopper
 10
367.950750
 20
355.098350
  0
SEQEND
  0
POLYLINE
  8
BottomCopper
 66
1
 10
0.000000
 20
0.000000
 30
0.000000
 40
0.444500
 41
0.444500
 70
1
  0
VERTEX
  8
BottomCopper
 10
369.030250
 20
357.130350
  0
VERTEX
  8
BottomCopper
 10
369.030250
 20
357.574850
  0
VERTEX
  8
BottomCopper
 10
367.950750
 20
357.574850
  0
VERTEX
  8
BottomCopper
 10
367.950750
 20
357.130350
  0
SEQEND
  0
POLYLINE
  8
BottomCopper
 66
1
 10
0.000000
 20
0.000000
 30
0.000000
 40
0.762000
 41
0.762000
 70
1
  0
VERTEX
  8
BottomCopper
 42
1.000000
 10
426.529500
 20
372.846600
  0
VERTEX
  8
BottomCopper
 42
1.000000
 10
427.291500
 20
372.846600
  0
SEQEND
  0
POLYLINE
  8
BottomCopper
 66
1
 10
0.000000
 20
0.000000
 30
0.000000
 40
0.762000
 41
0.762000
 70
1
  0
VERTEX
  8
BottomCopper
 42
1.000000
 10
401.129500
 20
372.846600
  0
VERTEX
  8
BottomCopper
 42
1.000000
 10
401.891500
 20
372.846600
  0
SEQEND
  0
POLYLINE
  8
BottomCopper
 66
1
 10
0.000000
 20
0.000000
 30
0.000000
 40
0.762000
 41
0.762000
 70
1
  0
VERTEX
  8
BottomCopper
 42
1.000000
 10
373.189500
 20
372.846600
  0
VERTEX
  8
BottomCopper
 42
1.000000
 10
373.951500
 20
372.846600
  0
SEQEND
  0
POLYLINE
  8
BottomCopper
 66
1
 10
0.000000
 20
0.000000
 30
0.000000
 40
0.762000
 41
0.762000
 70
1
  0
VERTEX
  8
BottomCopper
 42
1.000000
 10
398.589500
 20
372.846600
  0
VERTEX
  8
BottomCopper
 42
1.000000
 10
399.351500
 20
372.846600
  0
SEQEND
  0
POLYLINE
  8
BottomCopper
 66
1
 10
0.000000
 20
0.000000
 30
0.000000
 40
1.016000
 41
1.016000
 70
1
  0
VERTEX
  8
BottomCopper
 10
398.843500
 20
358.470200
  0
VERTEX
  8
BottomCopper
 10
398.843500
 20
359.486200
  0
VERTEX
  8
BottomCopper
 10
397.827500
 20
359.486200
  0
VERTEX
  8
BottomCopper
 10
397.827500
 20
358.470200
  0
SEQEND
  0
POLYLINE
  8
BottomCopper
 66
1
 10
0.000000
 20
0.000000
 30
0.000000
 40
1.016000
 41
1.016000
 70
1
  0
VERTEX
  8
BottomCopper
 10
398.843500
 20
354.965000
  0
VERTEX
  8
BottomCopper
 10
398.843500
 20
355.981000
  0
VERTEX
  8
BottomCopper
 10
397.827500
 20
355.981000
  0
VERTEX
  8
BottomCopper
 10
397.827500
 20
354.965000
  0
SEQEND
  0
POLYLINE
  8
BottomCopper
 66
1
 10
0.000000
 20
0.000000
 30
0.000000
 40
0.508000
 41
0.508000
 70
1
  0
VERTEX
  8
BottomCopper
 10
399.097500
 20
339.953600
  0
VERTEX
  8
BottomCopper
 10
399.097500
 20
340.461600
  0
VERTEX
  8
BottomCopper
 10
397.573500
 20
340.461600
  0
VERTEX
  8
BottomCopper
 10
397.573500
 20
339.953600
  0
SEQEND
  0
POLYLINE
  8
BottomCopper
 66
1
 10
0.000000
 20
0.000000
 30
0.000000
 40
0.508000
 41
0.508000
 70
1
  0
VERTEX
  8
BottomCopper
 10
399.097500
 20
342.747600
  0
VERTEX
  8
BottomCopper
 10
399.097500
 20
343.255600
  0
VERTEX
  8
BottomCopper
 10
397.573500
 20
343.255600
  0
VERTEX
  8
BottomCopper
 10
397.573500
 20
342.747600
  0
SEQEND
  0
POLYLINE
  8
BottomCopper
 66
1
 10
0.000000
 20
0.000000
 30
0.000000
 40
1.016000
 41
1.016000
 70
1
  0
VERTEX
  8
BottomCopper
 10
389.851900
 20
346.303600
  0
VERTEX
  8
BottomCopper
 10
389.851900
 20
347.319600
  0
VERTEX
  8
BottomCopper
 10
388.835900
 20
347.319600
  0
VERTEX
  8
BottomCopper
 10
388.835900
 20
346.303600
  0
SEQEND
  0
POLYLINE
  8
BottomCopper
 66
1
 10
0.000000
 20
0.000000
 30
0.000000
 40
1.016000
 41
1.016000
 70
1
  0
VERTEX
  8
BottomCopper
 10
393.357100
 20
346.303600
  0
VERTEX
  8
BottomCopper
 10
393.357100
 20
347.319600
  0
VERTEX
  8
BottomCopper
 10
392.341100
 20
347.319600
  0
VERTEX
  8
BottomCopper
 10
392.341100
 20
346.303600
  0
SEQEND
  0
POLYLINE
  8
BottomCopper
 66
1
 10
0.000000
 20
0.000000
 30
0.000000
 40
0.508000
 41
0.508000
 70
1
  0
VERTEX
  8
BottomCopper
 10
463.232500
 20
336.143600
  0
VERTEX
  8
BottomCopper
 10
463.232500
 20
336.651600
  0
VERTEX
  8
BottomCopper
 10
461.708500
 20
336.651600
  0
VERTEX
  8
BottomCopper
 10
461.708500
 20
336.143600
  0
SEQEND
  0
POLYLINE
  8
BottomCopper
 66
1
 10
0.000000
 20
0.000000
 30
0.000000
 40
0.508000
 41
0.508000
 70
1
  0
VERTEX
  8
BottomCopper
 10
463.232500
 20
338.937600
  0
VERTEX
  8
BottomCopper
 10
463.232500
 20
339.445600
  0
VERTEX
  8
BottomCopper
 10
461.708500
 20
339.445600
  0
VERTEX
  8
BottomCopper
 10
461.708500
 20
338.937600
  0
SEQEND
  0
POLYLINE
  8
BottomCopper
 66
1
 10
0.000000
 20
0.000000
 30
0.000000
 40
0.508000
 41
0.508000
 70
1
  0
VERTEX
  8
BottomCopper
 10
449.008500
 20
336.524600
  0
VERTEX
  8
BottomCopper
 10
449.008500
 20
338.048600
  0
VERTEX
  8
BottomCopper
 10
448.500500
 20
338.048600
  0
VERTEX
  8
BottomCopper
 10
448.500500
 20
336.524600
  0
SEQEND
  0
POLYLINE
  8
BottomCopper
 66
1
 10
0.000000
 20
0.000000
 30
0.000000
 40
0.508000
 41
0.508000
 70
1
  0
VERTEX
  8
BottomCopper
 10
446.214500
 20
336.524600
  0
VERTEX
  8
BottomCopper
 10
446.214500
 20
338.048600
  0
VERTEX
  8
BottomCopper
 10
445.706500
 20
338.048600
  0
VERTEX
  8
BottomCopper
 10
445.706500
 20
336.524600
  0
SEQEND
  0
POLYLINE
  8
BottomCopper
 66
1
 10
0.000000
 20
0.000000
 30
0.000000
 40
1.181100
 41
1.181100
 70
1
  0
VERTEX
  8
BottomCopper
 10
399.688050
 20
348.735650
  0
VERTEX
  8
BottomCopper
 10
399.688050
 20
349.967550
  0
VERTEX
  8
BottomCopper
 10
398.506950
 20
349.967550
  0
VERTEX
  8
BottomCopper
 10
398.506950
 20
348.735650
  0
SEQEND
  0
POLYLINE
  8
BottomCopper
 66
1
 10
0.000000
 20
0.000000
 30
0.000000
 40
1.181100
 41
1.181100
 70
1
  0
VERTEX
  8
BottomCopper
 10
405.784050
 20
348.735650
  0
VERTEX
  8
BottomCopper
 10
405.784050
 20
349.967550
  0
VERTEX
  8
BottomCopper
 10
404.602950
 20
349.967550
  0
VERTEX
  8
BottomCopper
 10
404.602950
 20
348.735650
  0
SEQEND
  0
POLYLINE
  8
BottomCopper
 66
1
 10
0.000000
 20
0.000000
 30
0.000000
 40
0.444500
 41
0.444500
 70
1
  0
VERTEX
  8
BottomCopper
 10
429.990250
 20
360.940350
  0
VERTEX
  8
BottomCopper
 10
429.990250
 20
361.384850
  0
VERTEX
  8
BottomCopper
 10
428.910750
 20
361.384850
  0
VERTEX
  8
BottomCopper
 10
428.910750
 20
360.940350
  0
SEQEND
  0
POLYLINE
  8
BottomCopper
 66
1
 10
0.000000
 20
0.000000
 30
0.000000
 40
0.444500
 41
0.444500
 70
1
  0
VERTEX
  8
BottomCopper
 10
429.990250
 20
358.908350
  0
VERTEX
  8
BottomCopper
 10
429.990250
 20
359.352850
  0
VERTEX
  8
BottomCopper
 10
428.910750
 20
359.352850
  0
VERTEX
  8
BottomCopper
 10
428.910750
 20
358.908350
  0
SEQEND
  0
POLYLINE
  8
BottomCopper
 66
1
 10
0.000000
 20
0.000000
 30
0.000000
 40
0.444500
 41
0.444500
 70
1
  0
VERTEX
  8
BottomCopper
 10
429.990250
 20
354.463350
  0
VERTEX
  8
BottomCopper
 10
429.990250
 20
354.907850
  0
VERTEX
  8
BottomCopper
 10
428.910750
 20
354.907850
  0
VERTEX
  8
BottomCopper
 10
428.910750
 20
354.463350
  0
SEQEND
  0
POLYLINE
  8
BottomCopper
 66
1
 10
0.000000
 20
0.000000
 30
0.000000
 40
0.444500
 41
0.444500
 70
1
  0
VERTEX
  8
BottomCopper
 10
429.990250
 20
356.495350
  0
VERTEX
  8
BottomCopper
 10
429.990250
 20
356.939850
  0
VERTEX
  8
BottomCopper
 10
428.910750
 20
356.939850
  0
VERTEX
  8
BottomCopper
 10
428.910750
 20
356.495350
  0
SEQEND
  0
POLYLINE
  8
BottomCopper
 66
1
 10
0.000000
 20
0.000000
 30
0.000000
 40
0.444500
 41
0.444500
 70
1
  0
VERTEX
  8
BottomCopper
 10
429.990250
 20
350.018350
  0
VERTEX
  8
BottomCopper
 10
429.990250
 20
350.462850
  0
VERTEX
  8
BottomCopper
 10
428.910750
 20
350.462850
  0
VERTEX
  8
BottomCopper
 10
428.910750
 20
350.018350
  0
SEQEND
  0
POLYLINE
  8
BottomCopper
 66
1
 10
0.000000
 20
0.000000
 30
0.000000
 40
0.444500
 41
0.444500
 70
1
  0
VERTEX
  8
BottomCopper
 10
429.990250
 20
352.050350
  0
VERTEX
  8
BottomCopper
 10
429.990250
 20
352.494850
  0
VERTEX
  8
BottomCopper
 10
428.910750
 20
352.494850
  0
VERTEX
  8
BottomCopper
 10
428.910750
 20
352.050350
  0
SEQEND
  0
POLYLINE
  8
BottomCopper
 66
1
 10
0.000000
 20
0.000000
 30
0.000000
 40
0.444500
 41
0.444500
 70
1
  0
VERTEX
  8
BottomCopper
 10
429.990250
 20
345.573350
  0
VERTEX
  8
BottomCopper
 10
429.990250
 20
346.017850
  0
VERTEX
  8
BottomCopper
 10
428.910750
 20
346.017850
  0
VERTEX
  8
BottomCopper
 10
428.910750
 20
345.573350
  0
SEQEND
  0
POLYLINE
  8
BottomCopper
 66
1
 10
0.000000
 20
0.000000
 30
0.000000
 40
0.444500
 41
0.444500
 70
1
  0
VERTEX
  8
BottomCopper
 10
429.990250
 20
347.605350
  0
VERTEX
  8
BottomCopper
 10
429.990250
 20
348.049850
  0
VERTEX
  8
BottomCopper
 10
428.910750
 20
348.049850
  0
VERTEX
  8
BottomCopper
 10
428.910750
 20
347.605350
  0
SEQEND
  0
POLYLINE
  8
BottomCopper
 66
1
 10
0.000000
 20
0.000000
 30
0.000000
 40
0.444500
 41
0.444500
 70
1
  0
VERTEX
  8
BottomCopper
 10
417.925250
 20
353.193350
  0
VERTEX
  8
BottomCopper
 10
417.925250
 20
353.637850
  0
VERTEX
  8
BottomCopper
 10
416.845750
 20
353.637850
  0
VERTEX
  8
BottomCopper
 10
416.845750
 20
353.193350
  0
SEQEND
  0
POLYLINE
  8
BottomCopper
 66
1
 10
0.000000
 20
0.000000
 30
0.000000
 40
0.444500
 41
0.444500
 70
1
  0
VERTEX
  8
BottomCopper
 10
417.925250
 20
355.225350
  0
VERTEX
  8
BottomCopper
 10
417.925250
 20
355.669850
  0
VERTEX
  8
BottomCopper
 10
416.845750
 20
355.669850
  0
VERTEX
  8
BottomCopper
 10
416.845750
 20
355.225350
  0
SEQEND
  0
POLYLINE
  8
BottomCopper
 66
1
 10
0.000000
 20
0.000000
 30
0.000000
 40
0.762000
 41
0.762000
 70
1
  0
VERTEX
  8
BottomCopper
 42
1.000000
 10
362.394500
 20
374.751600
  0
VERTEX
  8
BottomCopper
 42
1.000000
 10
363.156500
 20
374.751600
  0
SEQEND
  0
POLYLINE
  8
BottomCopper
 66
1
 10
0.000000
 20
0.000000
 30
0.000000
 40
0.762000
 41
0.762000
 70
1
  0
VERTEX
  8
BottomCopper
 42
1.000000
 10
362.394500
 20
372.211600
  0
VERTEX
  8
BottomCopper
 42
1.000000
 10
363.156500
 20
372.211600
  0
SEQEND
  0
POLYLINE
  8
BottomCopper
 66
1
 10
0.000000
 20
0.000000
 30
0.000000
 40
0.698500
 41
0.698500
 70
1
  0
VERTEX
  8
BottomCopper
 42
1.000000
 10
397.249650
 20
364.210600
  0
VERTEX
  8
BottomCopper
 42
1.000000
 10
397.948150
 20
364.210600
  0
SEQEND
  0
POLYLINE
  8
BottomCopper
 66
1
 10
0.000000
 20
0.000000
 30
0.000000
 40
0.698500
 41
0.698500
 70
1
  0
VERTEX
  8
BottomCopper
 42
1.000000
 10
397.249650
 20
366.217200
  0
VERTEX
  8
BottomCopper
 42
1.000000
 10
397.948150
 20
366.217200
  0
SEQEND
  0
POLYLINE
  8
BottomCopper
 66
1
 10
0.000000
 20
0.000000
 30
0.000000
 40
0.698500
 41
0.698500
 70
1
  0
VERTEX
  8
BottomCopper
 42
1.000000
 10
399.230850
 20
364.210600
  0
VERTEX
  8
BottomCopper
 42
1.000000
 10
399.929350
 20
364.210600
  0
SEQEND
  0
POLYLINE
  8
BottomCopper
 66
1
 10
0.000000
 20
0.000000
 30
0.000000
 40
0.698500
 41
0.698500
 70
1
  0
VERTEX
  8
BottomCopper
 42
1.000000
 10
399.230850
 20
366.217200
  0
VERTEX
  8
BottomCopper
 42
1.000000
 10
399.929350
 20
366.217200
  0
SEQEND
  0
POLYLINE
  8
BottomCopper
 66
1
 10
0.000000
 20
0.000000
 30
0.000000
 40
0.698500
 41
0.698500
 70
1
  0
VERTEX
  8
BottomCopper
 42
1.000000
 10
401.237450
 20
364.210600
  0
VERTEX
  8
BottomCopper
 42
1.000000
 10
401.935950
 20
364.210600
  0
SEQEND
  0
POLYLINE
  8
BottomCopper
 66
1
 10
0.000000
 20
0.000000
 30
0.000000
 40
0.698500
 41
0.698500
 70
1
  0
VERTEX
  8
BottomCopper
 42
1.000000
 10
401.237450
 20
366.217200
  0
VERTEX
  8
BottomCopper
 42
1.000000
 10
401.935950
 20
366.217200
  0
SEQEND
  0
POLYLINE
  8
BottomCopper
 66
1
 10
0.000000
 20
0.000000
 30
0.000000
 40
0.698500
 41
0.698500
 70
1
  0
VERTEX
  8
BottomCopper
 42
1.000000
 10
403.244050
 20
364.210600
  0
VERTEX
  8
BottomCopper
 42
1.000000
 10
403.942550
 20
364.210600
  0
SEQEND
  0
POLYLINE
  8
BottomCopper
 66
1
 10
0.000000
 20
0.000000
 30
0.000000
 40
0.698500
 41
0.698500
 70
1
  0
VERTEX
  8
BottomCopper
 42
1.000000
 10
403.244050
 20
366.217200
  0
VERTEX
  8
BottomCopper
 42
1.000000
 10
403.942550
 20
366.217200
  0
SEQEND
  0
POLYLINE
  8
BottomCopper
 66
1
 10
0.000000
 20
0.000000
 30
0.000000
 40
0.698500
 41
0.698500
 70
1
  0
VERTEX
  8
BottomCopper
 42
1.000000
 10
405.250650
 20
364.210600
  0
VERTEX
  8
BottomCopper
 42
1.000000
 10
405.949150
 20
364.210600
  0
SEQEND
  0
POLYLINE
  8
BottomCopper
 66
1
 10
0.000000
 20
0.000000
 30
0.000000
 40
0.698500
 41
0.698500
 70
1
  0
VERTEX
  8
BottomCopper
 42
1.000000
 10
405.250650
 20
366.217200
  0
VERTEX
  8
BottomCopper
 42
1.000000
 10
405.949150
 20
366.217200
  0
SEQEND
  0
POLYLINE
  8
BottomCopper
 66
1
 10
0.000000
 20
0.000000
 30
0.000000
 40
0.698500
 41
0.698500
 70
1
  0
VERTEX
  8
BottomCopper
 42
1.000000
 10
407.231850
 20
364.210600
  0
VERTEX
  8
BottomCopper
 42
1.000000
 10
407.930350
 20
364.210600
  0
SEQEND
  0
POLYLINE
  8
BottomCopper
 66
1
 10
0.000000
 20
0.000000
 30
0.000000
 40
0.698500
 41
0.698500
 70
1
  0
VERTEX
  8
BottomCopper
 42
1.000000
 10
407.231850
 20
366.217200
  0
VERTEX
  8
BottomCopper
 42
1.000000
 10
407.930350
 20
366.217200
  0
SEQEND
  0
POLYLINE
  8
BottomCopper
 66
1
 10
0.000000
 20
0.000000
 30
0.000000
 40
0.698500
 41
0.698500
 70
1
  0
VERTEX
  8
BottomCopper
 42
1.000000
 10
409.238450
 20
364.210600
  0
VERTEX
  8
BottomCopper
 42
1.000000
 10
409.936950
 20
364.210600
  0
SEQEND
  0
POLYLINE
  8
BottomCopper
 66
1
 10
0.000000
 20
0.000000
 30
0.000000
 40
0.698500
 41
0.698500
 70
1
  0
VERTEX
  8
BottomCopper
 42
1.000000
 10
409.238450
 20
366.217200
  0
VERTEX
  8
BottomCopper
 42
1.000000
 10
409.936950
 20
366.217200
  0
SEQEND
  0
POLYLINE
  8
BottomCopper
 66
1
 10
0.000000
 20
0.000000
 30
0.000000
 40
0.698500
 41
0.698500
 70
1
  0
VERTEX
  8
BottomCopper
 42
1.000000
 10
411.245050
 20
364.210600
  0
VERTEX
  8
BottomCopper
 42
1.000000
 10
411.943550
 20
364.210600
  0
SEQEND
  0
POLYLINE
  8
BottomCopper
 66
1
 10
0.000000
 20
0.000000
 30
0.000000
 40
0.698500
 41
0.698500
 70
1
  0
VERTEX
  8
BottomCopper
 42
1.000000
 10
411.245050
 20
366.217200
  0
VERTEX
  8
BottomCopper
 42
1.000000
 10
411.943550
 20
366.217200
  0
SEQEND
  0
POLYLINE
  8
BottomCopper
 66
1
 10
0.000000
 20
0.000000
 30
0.000000
 40
0.698500
 41
0.698500
 70
1
  0
VERTEX
  8
BottomCopper
 42
1.000000
 10
413.251650
 20
364.210600
  0
VERTEX
  8
BottomCopper
 42
1.000000
 10
413.950150
 20
364.210600
  0
SEQEND
  0
POLYLINE
  8
BottomCopper
 66
1
 10
0.000000
 20
0.000000
 30
0.000000
 40
0.698500
 41
0.698500
 70
1
  0
VERTEX
  8
BottomCopper
 42
1.000000
 10
413.251650
 20
366.217200
  0
VERTEX
  8
BottomCopper
 42
1.000000
 10
413.950150
 20
366.217200
  0
SEQEND
  0
POLYLINE
  8
BottomCopper
 66
1
 10
0.000000
 20
0.000000
 30
0.000000
 40
0.698500
 41
0.698500
 70
1
  0
VERTEX
  8
BottomCopper
 42
1.000000
 10
415.232850
 20
364.210600
  0
VERTEX
  8
BottomCopper
 42
1.000000
 10
415.931350
 20
364.210600
  0
SEQEND
  0
POLYLINE
  8
BottomCopper
 66
1
 10
0.000000
 20
0.000000
 30
0.000000
 40
0.698500
 41
0.698500
 70
1
  0
VERTEX
  8
BottomCopper
 42
1.000000
 10
415.232850
 20
366.217200
  0
VERTEX
  8
BottomCopper
 42
1.000000
 10
415.931350
 20
366.217200
  0
SEQEND
  0
POLYLINE
  8
BottomCopper
 66
1
 10
0.000000
 20
0.000000
 30
0.000000
 40
0.698500
 41
0.698500
 70
1
  0
VERTEX
  8
BottomCopper
 42
1.000000
 10
335.045050
 20
375.107200
  0
VERTEX
  8
BottomCopper
 42
1.000000
 10
335.743550
 20
375.107200
  0
SEQEND
  0
POLYLINE
  8
BottomCopper
 66
1
 10
0.000000
 20
0.000000
 30
0.000000
 40
0.698500
 41
0.698500
 70
1
  0
VERTEX
  8
BottomCopper
 42
1.000000
 10
337.051650
 20
375.107200
  0
VERTEX
  8
BottomCopper
 42
1.000000
 10
337.750150
 20
375.107200
  0
SEQEND
  0
POLYLINE
  8
BottomCopper
 66
1
 10
0.000000
 20
0.000000
 30
0.000000
 40
0.698500
 41
0.698500
 70
1
  0
VERTEX
  8
BottomCopper
 42
1.000000
 10
339.058250
 20
375.107200
  0
VERTEX
  8
BottomCopper
 42
1.000000
 10
339.756750
 20
375.107200
  0
SEQEND
  0
POLYLINE
  8
BottomCopper
 66
1
 10
0.000000
 20
0.000000
 30
0.000000
 40
0.698500
 41
0.698500
 70
1
  0
VERTEX
  8
BottomCopper
 42
1.000000
 10
341.064850
 20
375.107200
  0
VERTEX
  8
BottomCopper
 42
1.000000
 10
341.763350
 20
375.107200
  0
SEQEND
  0
POLYLINE
  8
BottomCopper
 66
1
 10
0.000000
 20
0.000000
 30
0.000000
 40
0.698500
 41
0.698500
 70
1
  0
VERTEX
  8
BottomCopper
 42
1.000000
 10
343.020650
 20
375.107200
  0
VERTEX
  8
BottomCopper
 42
1.000000
 10
343.719150
 20
375.107200
  0
SEQEND
  0
POLYLINE
  8
BottomCopper
 66
1
 10
0.000000
 20
0.000000
 30
0.000000
 40
0.698500
 41
0.698500
 70
1
  0
VERTEX
  8
BottomCopper
 42
1.000000
 10
335.045050
 20
373.100600
  0
VERTEX
  8
BottomCopper
 42
1.000000
 10
335.743550
 20
373.100600
  0
SEQEND
  0
POLYLINE
  8
BottomCopper
 66
1
 10
0.000000
 20
0.000000
 30
0.000000
 40
0.698500
 41
0.698500
 70
1
  0
VERTEX
  8
BottomCopper
 42
1.000000
 10
337.051650
 20
373.100600
  0
VERTEX
  8
BottomCopper
 42
1.000000
 10
337.750150
 20
373.100600
  0
SEQEND
  0
POLYLINE
  8
BottomCopper
 66
1
 10
0.000000
 20
0.000000
 30
0.000000
 40
0.698500
 41
0.698500
 70
1
  0
VERTEX
  8
BottomCopper
 42
1.000000
 10
339.058250
 20
373.100600
  0
VERTEX
  8
BottomCopper
 42
1.000000
 10
339.756750
 20
373.100600
  0
SEQEND
  0
POLYLINE
  8
BottomCopper
 66
1
 10
0.000000
 20
0.000000
 30
0.000000
 40
0.698500
 41
0.698500
 70
1
  0
VERTEX
  8
BottomCopper
 42
1.000000
 10
341.064850
 20
373.100600
  0
VERTEX
  8
BottomCopper
 42
1.000000
 10
341.763350
 20
373.100600
  0
SEQEND
  0
POLYLINE
  8
BottomCopper
 66
1
 10
0.000000
 20
0.000000
 30
0.000000
 40
0.698500
 41
0.698500
 70
1
  0
VERTEX
  8
BottomCopper
 42
1.000000
 10
343.020650
 20
373.100600
  0
VERTEX
  8
BottomCopper
 42
1.000000
 10
343.719150
 20
373.100600
  0
SEQEND
  0
POLYLINE
  8
BottomCopper
 66
1
 10
0.000000
 20
0.000000
 30
0.000000
 40
0.762000
 41
0.762000
 70
1
  0
VERTEX
  8
BottomCopper
 42
1.000000
 10
373.189500
 20
368.401600
  0
VERTEX
  8
BottomCopper
 42
1.000000
 10
373.951500
 20
368.401600
  0
SEQEND
  0
POLYLINE
  8
BottomCopper
 66
1
 10
0.000000
 20
0.000000
 30
0.000000
 40
0.825500
 41
0.825500
 70
1
  0
VERTEX
  8
BottomCopper
 42
1.000000
 10
466.959950
 20
362.686600
  0
VERTEX
  8
BottomCopper
 42
1.000000
 10
467.785450
 20
362.686600
  0
SEQEND
  0
POLYLINE
  8
BottomCopper
 66
1
 10
0.000000
 20
0.000000
 30
0.000000
 40
0.825500
 41
0.825500
 70
1
  0
VERTEX
  8
BottomCopper
 42
1.000000
 10
466.959950
 20
370.306600
  0
VERTEX
  8
BottomCopper
 42
1.000000
 10
467.785450
 20
370.306600
  0
SEQEND
  0
POLYLINE
  8
BottomCopper
 66
1
 10
0.000000
 20
0.000000
 30
0.000000
 40
0.825500
 41
0.825500
 70
1
  0
VERTEX
  8
BottomCopper
 42
1.000000
 10
466.959950
 20
365.226600
  0
VERTEX
  8
BottomCopper
 42
1.000000
 10
467.785450
 20
365.226600
  0
SEQEND
  0
POLYLINE
  8
BottomCopper
 66
1
 10
0.000000
 20
0.000000
 30
0.000000
 40
0.825500
 41
0.825500
 70
1
  0
VERTEX
  8
BottomCopper
 42
1.000000
 10
477.119950
 20
367.766600
  0
VERTEX
  8
BottomCopper
 42
1.000000
 10
477.945450
 20
367.766600
  0
SEQEND
  0
POLYLINE
  8
BottomCopper
 66
1
 10
0.000000
 20
0.000000
 30
0.000000
 40
0.825500
 41
0.825500
 70
1
  0
VERTEX
  8
BottomCopper
 42
1.000000
 10
477.119950
 20
370.306600
  0
VERTEX
  8
BottomCopper
 42
1.000000
 10
477.945450
 20
370.306600
  0
SEQEND
  0
POLYLINE
  8
BottomCopper
 66
1
 10
0.000000
 20
0.000000
 30
0.000000
 40
0.825500
 41
0.825500
 70
1
  0
VERTEX
  8
BottomCopper
 42
1.000000
 10
477.119950
 20
362.686600
  0
VERTEX
  8
BottomCopper
 42
1.000000
 10
477.945450
 20
362.686600
  0
SEQEND
  0
POLYLINE
  8
BottomCopper
 66
1
 10
0.000000
 20
0.000000
 30
0.000000
 40
0.825500
 41
0.825500
 70
1
  0
VERTEX
  8
BottomCopper
 42
1.000000
 10
463.149950
 20
360.146600
  0
VERTEX
  8
BottomCopper
 42
1.000000
 10
463.975450
 20
360.146600
  0
SEQEND
  0
POLYLINE
  8
BottomCopper
 66
1
 10
0.000000
 20
0.000000
 30
0.000000
 40
0.825500
 41
0.825500
 70
1
  0
VERTEX
  8
BottomCopper
 42
1.000000
 10
470.769950
 20
360.146600
  0
VERTEX
  8
BottomCopper
 42
1.000000
 10
471.595450
 20
360.146600
  0
SEQEND
  0
POLYLINE
  8
BottomCopper
 66
1
 10
0.000000
 20
0.000000
 30
0.000000
 40
0.825500
 41
0.825500
 70
1
  0
VERTEX
  8
BottomCopper
 42
1.000000
 10
465.689950
 20
360.146600
  0
VERTEX
  8
BottomCopper
 42
1.000000
 10
466.515450
 20
360.146600
  0
SEQEND
  0
POLYLINE
  8
BottomCopper
 66
1
 10
0.000000
 20
0.000000
 30
0.000000
 40
0.825500
 41
0.825500
 70
1
  0
VERTEX
  8
BottomCopper
 42
1.000000
 10
468.229950
 20
349.986600
  0
VERTEX
  8
BottomCopper
 42
1.000000
 10
469.055450
 20
349.986600
  0
SEQEND
  0
POLYLINE
  8
BottomCopper
 66
1
 10
0.000000
 20
0.000000
 30
0.000000
 40
0.825500
 41
0.825500
 70
1
  0
VERTEX
  8
BottomCopper
 42
1.000000
 10
470.769950
 20
349.986600
  0
VERTEX
  8
BottomCopper
 42
1.000000
 10
471.595450
 20
349.986600
  0
SEQEND
  0
POLYLINE
  8
BottomCopper
 66
1
 10
0.000000
 20
0.000000
 30
0.000000
 40
0.825500
 41
0.825500
 70
1
  0
VERTEX
  8
BottomCopper
 42
1.000000
 10
463.149950
 20
349.986600
  0
VERTEX
  8
BottomCopper
 42
1.000000
 10
463.975450
 20
349.986600
  0
SEQEND
  0
POLYLINE
  8
BottomCopper
 66
1
 10
0.000000
 20
0.000000
 30
0.000000
 40
0.825500
 41
0.825500
 70
1
  0
VERTEX
  8
BottomCopper
 42
1.000000
 10
480.929950
 20
349.986600
  0
VERTEX
  8
BottomCopper
 42
1.000000
 10
481.755450
 20
349.986600
  0
SEQEND
  0
POLYLINE
  8
BottomCopper
 66
1
 10
0.000000
 20
0.000000
 30
0.000000
 40
0.825500
 41
0.825500
 70
1
  0
VERTEX
  8
BottomCopper
 42
1.000000
 10
473.309950
 20
349.986600
  0
VERTEX
  8
BottomCopper
 42
1.000000
 10
474.135450
 20
349.986600
  0
SEQEND
  0
POLYLINE
  8
BottomCopper
 66
1
 10
0.000000
 20
0.000000
 30
0.000000
 40
0.825500
 41
0.825500
 70
1
  0
VERTEX
  8
BottomCopper
 42
1.000000
 10
478.389950
 20
349.986600
  0
VERTEX
  8
BottomCopper
 42
1.000000
 10
479.215450
 20
349.986600
  0
SEQEND
  0
POLYLINE
  8
BottomCopper
 66
1
 10
0.000000
 20
0.000000
 30
0.000000
 40
0.825500
 41
0.825500
 70
1
  0
VERTEX
  8
BottomCopper
 42
1.000000
 10
475.849950
 20
360.146600
  0
VERTEX
  8
BottomCopper
 42
1.000000
 10
476.675450
 20
360.146600
  0
SEQEND
  0
POLYLINE
  8
BottomCopper
 66
1
 10
0.000000
 20
0.000000
 30
0.000000
 40
0.825500
 41
0.825500
 70
1
  0
VERTEX
  8
BottomCopper
 42
1.000000
 10
473.309950
 20
360.146600
  0
VERTEX
  8
BottomCopper
 42
1.000000
 10
474.135450
 20
360.146600
  0
SEQEND
  0
POLYLINE
  8
BottomCopper
 66
1
 10
0.000000
 20
0.000000
 30
0.000000
 40
0.825500
 41
0.825500
 70
1
  0
VERTEX
  8
BottomCopper
 42
1.000000
 10
480.929950
 20
360.146600
  0
VERTEX
  8
BottomCopper
 42
1.000000
 10
481.755450
 20
360.146600
  0
SEQEND
  0
POLYLINE
  8
BottomCopper
 66
1
 10
0.000000
 20
0.000000
 30
0.000000
 40
0.825500
 41
0.825500
 70
1
  0
VERTEX
  8
BottomCopper
 42
1.000000
 10
466.959950
 20
339.826600
  0
VERTEX
  8
BottomCopper
 42
1.000000
 10
467.785450
 20
339.826600
  0
SEQEND
  0
POLYLINE
  8
BottomCopper
 66
1
 10
0.000000
 20
0.000000
 30
0.000000
 40
0.825500
 41
0.825500
 70
1
  0
VERTEX
  8
BottomCopper
 42
1.000000
 10
466.959950
 20
347.446600
  0
VERTEX
  8
BottomCopper
 42
1.000000
 10
467.785450
 20
347.446600
  0
SEQEND
  0
POLYLINE
  8
BottomCopper
 66
1
 10
0.000000
 20
0.000000
 30
0.000000
 40
0.825500
 41
0.825500
 70
1
  0
VERTEX
  8
BottomCopper
 42
1.000000
 10
466.959950
 20
342.366600
  0
VERTEX
  8
BottomCopper
 42
1.000000
 10
467.785450
 20
342.366600
  0
SEQEND
  0
POLYLINE
  8
BottomCopper
 66
1
 10
0.000000
 20
0.000000
 30
0.000000
 40
0.825500
 41
0.825500
 70
1
  0
VERTEX
  8
BottomCopper
 42
1.000000
 10
477.119950
 20
344.906600
  0
VERTEX
  8
BottomCopper
 42
1.000000
 10
477.945450
 20
344.906600
  0
SEQEND
  0
POLYLINE
  8
BottomCopper
 66
1
 10
0.000000
 20
0.000000
 30
0.000000
 40
0.825500
 41
0.825500
 70
1
  0
VERTEX
  8
BottomCopper
 42
1.000000
 10
477.119950
 20
347.446600
  0
VERTEX
  8
BottomCopper
 42
1.000000
 10
477.945450
 20
347.446600
  0
SEQEND
  0
POLYLINE
  8
BottomCopper
 66
1
 10
0.000000
 20
0.000000
 30
0.000000
 40
0.825500
 41
0.825500
 70
1
  0
VERTEX
  8
BottomCopper
 42
1.000000
 10
477.119950
 20
339.826600
  0
VERTEX
  8
BottomCopper
 42
1.000000
 10
477.945450
 20
339.826600
  0
SEQEND
  0
POLYLINE
  8
BottomCopper
 66
1
 10
0.000000
 20
0.000000
 30
0.000000
 40
0.952500
 41
0.952500
 70
1
  0
VERTEX
  8
BottomCopper
 42
1.000000
 10
341.928450
 20
343.585800
  0
VERTEX
  8
BottomCopper
 42
1.000000
 10
342.880950
 20
343.585800
  0
SEQEND
  0
POLYLINE
  8
BottomCopper
 66
1
 10
0.000000
 20
0.000000
 30
0.000000
 40
0.952500
 41
0.952500
 70
1
  0
VERTEX
  8
BottomCopper
 42
1.000000
 10
346.932250
 20
343.585800
  0
VERTEX
  8
BottomCopper
 42
1.000000
 10
347.884750
 20
343.585800
  0
SEQEND
  0
POLYLINE
  8
BottomCopper
 66
1
 10
0.000000
 20
0.000000
 30
0.000000
 40
0.952500
 41
0.952500
 70
1
  0
VERTEX
  8
BottomCopper
 42
1.000000
 10
341.928450
 20
358.089200
  0
VERTEX
  8
BottomCopper
 42
1.000000
 10
342.880950
 20
358.089200
  0
SEQEND
  0
POLYLINE
  8
BottomCopper
 66
1
 10
0.000000
 20
0.000000
 30
0.000000
 40
0.952500
 41
0.952500
 70
1
  0
VERTEX
  8
BottomCopper
 42
1.000000
 10
344.417650
 20
358.089200
  0
VERTEX
  8
BottomCopper
 42
1.000000
 10
345.370150
 20
358.089200
  0
SEQEND
  0
POLYLINE
  8
BottomCopper
 66
1
 10
0.000000
 20
0.000000
 30
0.000000
 40
0.952500
 41
0.952500
 70
1
  0
VERTEX
  8
BottomCopper
 42
1.000000
 10
346.932250
 20
358.089200
  0
VERTEX
  8
BottomCopper
 42
1.000000
 10
347.884750
 20
358.089200
  0
SEQEND
  0
POLYLINE
  8
BottomCopper
 66
1
 10
0.000000
 20
0.000000
 30
0.000000
 40
1.460500
 41
1.460500
 70
1
  0
VERTEX
  8
BottomCopper
 42
1.000000
 10
338.169250
 20
350.596200
  0
VERTEX
  8
BottomCopper
 42
1.000000
 10
339.629750
 20
350.596200
  0
SEQEND
  0
POLYLINE
  8
BottomCopper
 66
1
 10
0.000000
 20
0.000000
 30
0.000000
 40
1.460500
 41
1.460500
 70
1
  0
VERTEX
  8
BottomCopper
 42
1.000000
 10
350.183450
 20
350.596200
  0
VERTEX
  8
BottomCopper
 42
1.000000
 10
351.643950
 20
350.596200
  0
SEQEND
  0
POLYLINE
  8
BottomCopper
 66
1
 10
0.000000
 20
0.000000
 30
0.000000
 40
0.190500
 41
0.190500
 70
1
  0
VERTEX
  8
BottomCopper
 10
454.894950
 20
368.877850
  0
VERTEX
  8
BottomCopper
 10
454.894950
 20
369.449350
  0
VERTEX
  8
BottomCopper
 10
454.704450
 20
369.449350
  0
VERTEX
  8
BottomCopper
 10
454.704450
 20
368.877850
  0
SEQEND
  0
POLYLINE
  8
BottomCopper
 66
1
 10
0.000000
 20
0.000000
 30
0.000000
 40
0.190500
 41
0.190500
 70
1
  0
VERTEX
  8
BottomCopper
 10
454.894950
 20
367.379250
  0
VERTEX
  8
BottomCopper
 10
454.894950
 20
367.950750
  0
VERTEX
  8
BottomCopper
 10
454.704450
 20
367.950750
  0
VERTEX
  8
BottomCopper
 10
454.704450
 20
367.379250
  0
SEQEND
  0
POLYLINE
  8
BottomCopper
 66
1
 10
0.000000
 20
0.000000
 30
0.000000
 40
0.190500
 41
0.190500
 70
1
  0
VERTEX
  8
BottomCopper
 10
454.082150
 20
368.877850
  0
VERTEX
  8
BottomCopper
 10
454.082150
 20
369.449350
  0
VERTEX
  8
BottomCopper
 10
453.891650
 20
369.449350
  0
VERTEX
  8
BottomCopper
 10
453.891650
 20
368.877850
  0
SEQEND
  0
POLYLINE
  8
BottomCopper
 66
1
 10
0.000000
 20
0.000000
 30
0.000000
 40
0.190500
 41
0.190500
 70
1
  0
VERTEX
  8
BottomCopper
 10
454.082150
 20
367.379250
  0
VERTEX
  8
BottomCopper
 10
454.082150
 20
367.950750
  0
VERTEX
  8
BottomCopper
 10
453.891650
 20
367.950750
  0
VERTEX
  8
BottomCopper
 10
453.891650
 20
367.379250
  0
SEQEND
  0
POLYLINE
  8
BottomCopper
 66
1
 10
0.000000
 20
0.000000
 30
0.000000
 40
0.190500
 41
0.190500
 70
1
  0
VERTEX
  8
BottomCopper
 10
453.294750
 20
368.877850
  0
VERTEX
  8
BottomCopper
 10
453.294750
 20
369.449350
  0
VERTEX
  8
BottomCopper
 10
453.104250
 20
369.449350
  0
VERTEX
  8
BottomCopper
 10
453.104250
 20
368.877850
  0
SEQEND
  0
POLYLINE
  8
BottomCopper
 66
1
 10
0.000000
 20
0.000000
 30
0.000000
 40
0.190500
 41
0.190500
 70
1
  0
VERTEX
  8
BottomCopper
 10
453.294750
 20
367.379250
  0
VERTEX
  8
BottomCopper
 10
453.294750
 20
367.950750
  0
VERTEX
  8
BottomCopper
 10
453.104250
 20
367.950750
  0
VERTEX
  8
BottomCopper
 10
453.104250
 20
367.379250
  0
SEQEND
  0
POLYLINE
  8
BottomCopper
 66
1
 10
0.000000
 20
0.000000
 30
0.000000
 40
0.190500
 41
0.190500
 70
1
  0
VERTEX
  8
BottomCopper
 10
452.481950
 20
368.877850
  0
VERTEX
  8
BottomCopper
 10
452.481950
 20
369.449350
  0
VERTEX
  8
BottomCopper
 10
452.291450
 20
369.449350
  0
VERTEX
  8
BottomCopper
 10
452.291450
 20
368.877850
  0
SEQEND
  0
POLYLINE
  8
BottomCopper
 66
1
 10
0.000000
 20
0.000000
 30
0.000000
 40
0.190500
 41
0.190500
 70
1
  0
VERTEX
  8
BottomCopper
 10
452.481950
 20
367.379250
  0
VERTEX
  8
BottomCopper
 10
452.481950
 20
367.950750
  0
VERTEX
  8
BottomCopper
 10
452.291450
 20
367.950750
  0
VERTEX
  8
BottomCopper
 10
452.291450
 20
367.379250
  0
SEQEND
  0
POLYLINE
  8
BottomCopper
 66
1
 10
0.000000
 20
0.000000
 30
0.000000
 40
0.190500
 41
0.190500
 70
1
  0
VERTEX
  8
BottomCopper
 10
352.659950
 20
363.162850
  0
VERTEX
  8
BottomCopper
 10
352.659950
 20
363.734350
  0
VERTEX
  8
BottomCopper
 10
352.469450
 20
363.734350
  0
VERTEX
  8
BottomCopper
 10
352.469450
 20
363.162850
  0
SEQEND
  0
POLYLINE
  8
BottomCopper
 66
1
 10
0.000000
 20
0.000000
 30
0.000000
 40
0.190500
 41
0.190500
 70
1
  0
VERTEX
  8
BottomCopper
 10
352.659950
 20
361.664250
  0
VERTEX
  8
BottomCopper
 10
352.659950
 20
362.235750
  0
VERTEX
  8
BottomCopper
 10
352.469450
 20
362.235750
  0
VERTEX
  8
BottomCopper
 10
352.469450
 20
361.664250
  0
SEQEND
  0
POLYLINE
  8
BottomCopper
 66
1
 10
0.000000
 20
0.000000
 30
0.000000
 40
0.190500
 41
0.190500
 70
1
  0
VERTEX
  8
BottomCopper
 10
351.847150
 20
363.162850
  0
VERTEX
  8
BottomCopper
 10
351.847150
 20
363.734350
  0
VERTEX
  8
BottomCopper
 10
351.656650
 20
363.734350
  0
VERTEX
  8
BottomCopper
 10
351.656650
 20
363.162850
  0
SEQEND
  0
POLYLINE
  8
BottomCopper
 66
1
 10
0.000000
 20
0.000000
 30
0.000000
 40
0.190500
 41
0.190500
 70
1
  0
VERTEX
  8
BottomCopper
 10
351.847150
 20
361.664250
  0
VERTEX
  8
BottomCopper
 10
351.847150
 20
362.235750
  0
VERTEX
  8
BottomCopper
 10
351.656650
 20
362.235750
  0
VERTEX
  8
BottomCopper
 10
351.656650
 20
361.664250
  0
SEQEND
  0
POLYLINE
  8
BottomCopper
 66
1
 10
0.000000
 20
0.000000
 30
0.000000
 40
0.190500
 41
0.190500
 70
1
  0
VERTEX
  8
BottomCopper
 10
351.059750
 20
363.162850
  0
VERTEX
  8
BottomCopper
 10
351.059750
 20
363.734350
  0
VERTEX
  8
BottomCopper
 10
350.869250
 20
363.734350
  0
VERTEX
  8
BottomCopper
 10
350.869250
 20
363.162850
  0
SEQEND
  0
POLYLINE
  8
BottomCopper
 66
1
 10
0.000000
 20
0.000000
 30
0.000000
 40
0.190500
 41
0.190500
 70
1
  0
VERTEX
  8
BottomCopper
 10
351.059750
 20
361.664250
  0
VERTEX
  8
BottomCopper
 10
351.059750
 20
362.235750
  0
VERTEX
  8
BottomCopper
 10
350.869250
 20
362.235750
  0
VERTEX
  8
BottomCopper
 10
350.869250
 20
361.664250
  0
SEQEND
  0
POLYLINE
  8
BottomCopper
 66
1
 10
0.000000
 20
0.000000
 30
0.000000
 40
0.190500
 41
0.190500
 70
1
  0
VERTEX
  8
BottomCopper
 10
350.246950
 20
363.162850
  0
VERTEX
  8
BottomCopper
 10
350.246950
 20
363.734350
  0
VERTEX
  8
BottomCopper
 10
350.056450
 20
363.734350
  0
VERTEX
  8
BottomCopper
 10
350.056450
 20
363.162850
  0
SEQEND
  0
POLYLINE
  8
BottomCopper
 66
1
 10
0.000000
 20
0.000000
 30
0.000000
 40
0.190500
 41
0.190500
 70
1
  0
VERTEX
  8
BottomCopper
 10
350.246950
 20
361.664250
  0
VERTEX
  8
BottomCopper
 10
350.246950
 20
362.235750
  0
VERTEX
  8
BottomCopper
 10
350.056450
 20
362.235750
  0
VERTEX
  8
BottomCopper
 10
350.056450
 20
361.664250
  0
SEQEND
  0
POLYLINE
  8
BottomCopper
 66
1
 10
0.000000
 20
0.000000
 30
0.000000
 40
0.190500
 41
0.190500
 70
1
  0
VERTEX
  8
BottomCopper
 10
458.819250
 20
369.525550
  0
VERTEX
  8
BottomCopper
 10
458.819250
 20
369.716050
  0
VERTEX
  8
BottomCopper
 10
458.247750
 20
369.716050
  0
VERTEX
  8
BottomCopper
 10
458.247750
 20
369.525550
  0
SEQEND
  0
POLYLINE
  8
BottomCopper
 66
1
 10
0.000000
 20
0.000000
 30
0.000000
 40
0.190500
 41
0.190500
 70
1
  0
VERTEX
  8
BottomCopper
 10
460.317850
 20
369.525550
  0
VERTEX
  8
BottomCopper
 10
460.317850
 20
369.716050
  0
VERTEX
  8
BottomCopper
 10
459.746350
 20
369.716050
  0
VERTEX
  8
BottomCopper
 10
459.746350
 20
369.525550
  0
SEQEND
  0
POLYLINE
  8
BottomCopper
 66
1
 10
0.000000
 20
0.000000
 30
0.000000
 40
0.190500
 41
0.190500
 70
1
  0
VERTEX
  8
BottomCopper
 10
458.819250
 20
368.712750
  0
VERTEX
  8
BottomCopper
 10
458.819250
 20
368.903250
  0
VERTEX
  8
BottomCopper
 10
458.247750
 20
368.903250
  0
VERTEX
  8
BottomCopper
 10
458.247750
 20
368.712750
  0
SEQEND
  0
POLYLINE
  8
BottomCopper
 66
1
 10
0.000000
 20
0.000000
 30
0.000000
 40
0.190500
 41
0.190500
 70
1
  0
VERTEX
  8
BottomCopper
 10
460.317850
 20
368.712750
  0
VERTEX
  8
BottomCopper
 10
460.317850
 20
368.903250
  0
VERTEX
  8
BottomCopper
 10
459.746350
 20
368.903250
  0
VERTEX
  8
BottomCopper
 10
459.746350
 20
368.712750
  0
SEQEND
  0
POLYLINE
  8
BottomCopper
 66
1
 10
0.000000
 20
0.000000
 30
0.000000
 40
0.190500
 41
0.190500
 70
1
  0
VERTEX
  8
BottomCopper
 10
458.819250
 20
367.925350
  0
VERTEX
  8
BottomCopper
 10
458.819250
 20
368.115850
  0
VERTEX
  8
BottomCopper
 10
458.247750
 20
368.115850
  0
VERTEX
  8
BottomCopper
 10
458.247750
 20
367.925350
  0
SEQEND
  0
POLYLINE
  8
BottomCopper
 66
1
 10
0.000000
 20
0.000000
 30
0.000000
 40
0.190500
 41
0.190500
 70
1
  0
VERTEX
  8
BottomCopper
 10
460.317850
 20
367.925350
  0
VERTEX
  8
BottomCopper
 10
460.317850
 20
368.115850
  0
VERTEX
  8
BottomCopper
 10
459.746350
 20
368.115850
  0
VERTEX
  8
BottomCopper
 10
459.746350
 20
367.925350
  0
SEQEND
  0
POLYLINE
  8
BottomCopper
 66
1
 10
0.000000
 20
0.000000
 30
0.000000
 40
0.190500
 41
0.190500
 70
1
  0
VERTEX
  8
BottomCopper
 10
458.819250
 20
367.112550
  0
VERTEX
  8
BottomCopper
 10
458.819250
 20
367.303050
  0
VERTEX
  8
BottomCopper
 10
458.247750
 20
367.303050
  0
VERTEX
  8
BottomCopper
 10
458.247750
 20
367.112550
  0
SEQEND
  0
POLYLINE
  8
BottomCopper
 66
1
 10
0.000000
 20
0.000000
 30
0.000000
 40
0.190500
 41
0.190500
 70
1
  0
VERTEX
  8
BottomCopper
 10
460.317850
 20
367.112550
  0
VERTEX
  8
BottomCopper
 10
460.317850
 20
367.303050
  0
VERTEX
  8
BottomCopper
 10
459.746350
 20
367.303050
  0
VERTEX
  8
BottomCopper
 10
459.746350
 20
367.112550
  0
SEQEND
  0
POLYLINE
  8
BottomCopper
 66
1
 10
0.000000
 20
0.000000
 30
0.000000
 40
2.540000
 41
2.540000
 70
1
  0
VERTEX
  8
BottomCopper
 42
1.000000
 10
328.129900
 20
372.110000
  0
VERTEX
  8
BottomCopper
 42
1.000000
 10
330.669900
 20
372.110000
  0
SEQEND
  0
POLYLINE
  8
BottomCopper
 66
1
 10
0.000000
 20
0.000000
 30
0.000000
 40
2.540000
 41
2.540000
 70
1
  0
VERTEX
  8
BottomCopper
 42
1.000000
 10
328.129900
 20
339.090000
  0
VERTEX
  8
BottomCopper
 42
1.000000
 10
330.669900
 20
339.090000
  0
SEQEND
  0
POLYLINE
  8
BottomCopper
 66
1
 10
0.000000
 20
0.000000
 30
0.000000
 40
2.540000
 41
2.540000
 70
1
  0
VERTEX
  8
BottomCopper
 42
1.000000
 10
482.130100
 20
372.110000
  0
VERTEX
  8
BottomCopper
 42
1.000000
 10
484.670100
 20
372.110000
  0
SEQEND
  0
POLYLINE
  8
BottomCopper
 66
1
 10
0.000000
 20
0.000000
 30
0.000000
 40
2.540000
 41
2.540000
 70
1
  0
VERTEX
  8
BottomCopper
 42
1.000000
 10
482.130100
 20
339.090000
  0
VERTEX
  8
BottomCopper
 42
1.000000
 10
484.670100
 20
339.090000
  0
SEQEND
  0
POLYLINE
  8
ViaHoles
 66
1
 10
0.000000
 20
0.000000
 30
0.000000
 40
0.317500
 41
0.317500
 70
1
  0
VERTEX
  8
ViaHoles
 42
1.000000
 10
392.461750
 20
366.877600
  0
VERTEX
  8
ViaHoles
 42
1.000000
 10
392.779250
 20
366.877600
  0
SEQEND
  0
POLYLINE
  8
ViaHoles
 66
1
 10
0.000000
 20
0.000000
 30
0.000000
 40
0.317500
 41
0.317500
 70
1
  0
VERTEX
  8
ViaHoles
 42
1.000000
 10
392.461750
 20
372.821200
  0
VERTEX
  8
ViaHoles
 42
1.000000
 10
392.779250
 20
372.821200
  0
SEQEND
  0
POLYLINE
  8
ViaHoles
 66
1
 10
0.000000
 20
0.000000
 30
0.000000
 40
0.317500
 41
0.317500
 70
1
  0
VERTEX
  8
ViaHoles
 42
1.000000
 10
386.568950
 20
366.877600
  0
VERTEX
  8
ViaHoles
 42
1.000000
 10
386.886450
 20
366.877600
  0
SEQEND
  0
POLYLINE
  8
ViaHoles
 66
1
 10
0.000000
 20
0.000000
 30
0.000000
 40
0.317500
 41
0.317500
 70
1
  0
VERTEX
  8
ViaHoles
 42
1.000000
 10
407.320750
 20
354.203000
  0
VERTEX
  8
ViaHoles
 42
1.000000
 10
407.638250
 20
354.203000
  0
SEQEND
  0
POLYLINE
  8
ViaHoles
 66
1
 10
0.000000
 20
0.000000
 30
0.000000
 40
0.317500
 41
0.317500
 70
1
  0
VERTEX
  8
ViaHoles
 42
1.000000
 10
398.176750
 20
352.221800
  0
VERTEX
  8
ViaHoles
 42
1.000000
 10
398.494250
 20
352.221800
  0
SEQEND
  0
POLYLINE
  8
ViaHoles
 66
1
 10
0.000000
 20
0.000000
 30
0.000000
 40
0.317500
 41
0.317500
 70
1
  0
VERTEX
  8
ViaHoles
 42
1.000000
 10
374.046750
 20
346.862400
  0
VERTEX
  8
ViaHoles
 42
1.000000
 10
374.364250
 20
346.862400
  0
SEQEND
  0
POLYLINE
  8
ViaHoles
 66
1
 10
0.000000
 20
0.000000
 30
0.000000
 40
0.317500
 41
0.317500
 70
1
  0
VERTEX
  8
ViaHoles
 42
1.000000
 10
436.276750
 20
355.828600
  0
VERTEX
  8
ViaHoles
 42
1.000000
 10
436.594250
 20
355.828600
  0
SEQEND
  0
POLYLINE
  8
ViaHoles
 66
1
 10
0.000000
 20
0.000000
 30
0.000000
 40
0.317500
 41
0.317500
 70
1
  0
VERTEX
  8
ViaHoles
 42
1.000000
 10
405.034750
 20
351.866200
  0
VERTEX
  8
ViaHoles
 42
1.000000
 10
405.352250
 20
351.866200
  0
SEQEND
  0
POLYLINE
  8
ViaHoles
 66
1
 10
0.000000
 20
0.000000
 30
0.000000
 40
0.317500
 41
0.317500
 70
1
  0
VERTEX
  8
ViaHoles
 42
1.000000
 10
454.437750
 20
361.772200
  0
VERTEX
  8
ViaHoles
 42
1.000000
 10
454.755250
 20
361.772200
  0
SEQEND
  0
POLYLINE
  8
ViaHoles
 66
1
 10
0.000000
 20
0.000000
 30
0.000000
 40
0.317500
 41
0.317500
 70
1
  0
VERTEX
  8
ViaHoles
 42
1.000000
 10
403.510750
 20
355.955600
  0
VERTEX
  8
ViaHoles
 42
1.000000
 10
403.828250
 20
355.955600
  0
SEQEND
  0
POLYLINE
  8
ViaHoles
 66
1
 10
0.000000
 20
0.000000
 30
0.000000
 40
0.317500
 41
0.317500
 70
1
  0
VERTEX
  8
ViaHoles
 42
1.000000
 10
430.815750
 20
349.961200
  0
VERTEX
  8
ViaHoles
 42
1.000000
 10
431.133250
 20
349.961200
  0
SEQEND
  0
POLYLINE
  8
ViaHoles
 66
1
 10
0.000000
 20
0.000000
 30
0.000000
 40
0.317500
 41
0.317500
 70
1
  0
VERTEX
  8
ViaHoles
 42
1.000000
 10
464.089750
 20
336.397600
  0
VERTEX
  8
ViaHoles
 42
1.000000
 10
464.407250
 20
336.397600
  0
SEQEND
  0
POLYLINE
  8
ViaHoles
 66
1
 10
0.000000
 20
0.000000
 30
0.000000
 40
0.317500
 41
0.317500
 70
1
  0
VERTEX
  8
ViaHoles
 42
1.000000
 10
392.690350
 20
348.589600
  0
VERTEX
  8
ViaHoles
 42
1.000000
 10
393.007850
 20
348.589600
  0
SEQEND
  0
POLYLINE
  8
ViaHoles
 66
1
 10
0.000000
 20
0.000000
 30
0.000000
 40
0.317500
 41
0.317500
 70
1
  0
VERTEX
  8
ViaHoles
 42
1.000000
 10
362.743750
 20
350.850200
  0
VERTEX
  8
ViaHoles
 42
1.000000
 10
363.061250
 20
350.850200
  0
SEQEND
  0
POLYLINE
  8
ViaHoles
 66
1
 10
0.000000
 20
0.000000
 30
0.000000
 40
0.317500
 41
0.317500
 70
1
  0
VERTEX
  8
ViaHoles
 42
1.000000
 10
448.595750
 20
335.508600
  0
VERTEX
  8
ViaHoles
 42
1.000000
 10
448.913250
 20
335.508600
  0
SEQEND
  0
POLYLINE
  8
ViaHoles
 66
1
 10
0.000000
 20
0.000000
 30
0.000000
 40
0.317500
 41
0.317500
 70
1
  0
VERTEX
  8
ViaHoles
 42
1.000000
 10
396.398750
 20
343.001600
  0
VERTEX
  8
ViaHoles
 42
1.000000
 10
396.716250
 20
343.001600
  0
SEQEND
  0
POLYLINE
  8
ViaHoles
 66
1
 10
0.000000
 20
0.000000
 30
0.000000
 40
0.317500
 41
0.317500
 70
1
  0
VERTEX
  8
ViaHoles
 42
1.000000
 10
427.742350
 20
347.827600
  0
VERTEX
  8
ViaHoles
 42
1.000000
 10
428.059850
 20
347.827600
  0
SEQEND
  0
POLYLINE
  8
ViaHoles
 66
1
 10
0.000000
 20
0.000000
 30
0.000000
 40
0.317500
 41
0.317500
 70
1
  0
VERTEX
  8
ViaHoles
 42
1.000000
 10
415.702750
 20
355.447600
  0
VERTEX
  8
ViaHoles
 42
1.000000
 10
416.020250
 20
355.447600
  0
SEQEND
  0
POLYLINE
  8
ViaHoles
 66
1
 10
0.000000
 20
0.000000
 30
0.000000
 40
0.317500
 41
0.317500
 70
1
  0
VERTEX
  8
ViaHoles
 42
1.000000
 10
407.320750
 20
355.955600
  0
VERTEX
  8
ViaHoles
 42
1.000000
 10
407.638250
 20
355.955600
  0
SEQEND
  0
POLYLINE
  8
ViaHoles
 66
1
 10
0.000000
 20
0.000000
 30
0.000000
 40
0.317500
 41
0.317500
 70
1
  0
VERTEX
  8
ViaHoles
 42
1.000000
 10
445.420750
 20
364.845600
  0
VERTEX
  8
ViaHoles
 42
1.000000
 10
445.738250
 20
364.845600
  0
SEQEND
  0
POLYLINE
  8
ViaHoles
 66
1
 10
0.000000
 20
0.000000
 30
0.000000
 40
0.317500
 41
0.317500
 70
1
  0
VERTEX
  8
ViaHoles
 42
1.000000
 10
415.702750
 20
359.892600
  0
VERTEX
  8
ViaHoles
 42
1.000000
 10
416.020250
 20
359.892600
  0
SEQEND
  0
POLYLINE
  8
ViaHoles
 66
1
 10
0.000000
 20
0.000000
 30
0.000000
 40
0.317500
 41
0.317500
 70
1
  0
VERTEX
  8
ViaHoles
 42
1.000000
 10
330.714350
 20
347.573600
  0
VERTEX
  8
ViaHoles
 42
1.000000
 10
331.031850
 20
347.573600
  0
SEQEND
  0
POLYLINE
  8
ViaHoles
 66
1
 10
0.000000
 20
0.000000
 30
0.000000
 40
0.317500
 41
0.317500
 70
1
  0
VERTEX
  8
ViaHoles
 42
1.000000
 10
358.552750
 20
351.637600
  0
VERTEX
  8
ViaHoles
 42
1.000000
 10
358.870250
 20
351.637600
  0
SEQEND
  0
POLYLINE
  8
ViaHoles
 66
1
 10
0.000000
 20
0.000000
 30
0.000000
 40
0.317500
 41
0.317500
 70
1
  0
VERTEX
  8
ViaHoles
 42
1.000000
 10
413.797750
 20
349.097600
  0
VERTEX
  8
ViaHoles
 42
1.000000
 10
414.115250
 20
349.097600
  0
SEQEND
  0
POLYLINE
  8
ViaHoles
 66
1
 10
0.000000
 20
0.000000
 30
0.000000
 40
0.317500
 41
0.317500
 70
1
  0
VERTEX
  8
ViaHoles
 42
1.000000
 10
381.412750
 20
349.732600
  0
VERTEX
  8
ViaHoles
 42
1.000000
 10
381.730250
 20
349.732600
  0
SEQEND
  0
POLYLINE
  8
ViaHoles
 66
1
 10
0.000000
 20
0.000000
 30
0.000000
 40
0.317500
 41
0.317500
 70
1
  0
VERTEX
  8
ViaHoles
 42
1.000000
 10
418.242750
 20
364.210600
  0
VERTEX
  8
ViaHoles
 42
1.000000
 10
418.560250
 20
364.210600
  0
SEQEND
  0
POLYLINE
  8
ViaHoles
 66
1
 10
0.000000
 20
0.000000
 30
0.000000
 40
0.317500
 41
0.317500
 70
1
  0
VERTEX
  8
ViaHoles
 42
1.000000
 10
369.347750
 20
366.115600
  0
VERTEX
  8
ViaHoles
 42
1.000000
 10
369.665250
 20
366.115600
  0
SEQEND
  0
POLYLINE
  8
ViaHoles
 66
1
 10
0.000000
 20
0.000000
 30
0.000000
 40
0.317500
 41
0.317500
 70
1
  0
VERTEX
  8
ViaHoles
 42
1.000000
 10
380.650750
 20
342.112600
  0
VERTEX
  8
ViaHoles
 42
1.000000
 10
380.968250
 20
342.112600
  0
SEQEND
  0
POLYLINE
  8
ViaHoles
 66
1
 10
0.000000
 20
0.000000
 30
0.000000
 40
0.317500
 41
0.317500
 70
1
  0
VERTEX
  8
ViaHoles
 42
1.000000
 10
427.767750
 20
361.162600
  0
VERTEX
  8
ViaHoles
 42
1.000000
 10
428.085250
 20
361.162600
  0
SEQEND
  0
POLYLINE
  8
ViaHoles
 66
1
 10
0.000000
 20
0.000000
 30
0.000000
 40
0.317500
 41
0.317500
 70
1
  0
VERTEX
  8
ViaHoles
 42
1.000000
 10
385.730750
 20
342.112600
  0
VERTEX
  8
ViaHoles
 42
1.000000
 10
386.048250
 20
342.112600
  0
SEQEND
  0
POLYLINE
  8
ViaHoles
 66
1
 10
0.000000
 20
0.000000
 30
0.000000
 40
0.317500
 41
0.317500
 70
1
  0
VERTEX
  8
ViaHoles
 42
1.000000
 10
387.762750
 20
342.112600
  0
VERTEX
  8
ViaHoles
 42
1.000000
 10
388.080250
 20
342.112600
  0
SEQEND
  0
POLYLINE
  8
ViaHoles
 66
1
 10
0.000000
 20
0.000000
 30
0.000000
 40
0.317500
 41
0.317500
 70
1
  0
VERTEX
  8
ViaHoles
 42
1.000000
 10
369.855750
 20
355.320600
  0
VERTEX
  8
ViaHoles
 42
1.000000
 10
370.173250
 20
355.320600
  0
SEQEND
  0
POLYLINE
  8
ViaHoles
 66
1
 10
0.000000
 20
0.000000
 30
0.000000
 40
0.317500
 41
0.317500
 70
1
  0
VERTEX
  8
ViaHoles
 42
1.000000
 10
340.493350
 20
368.579400
  0
VERTEX
  8
ViaHoles
 42
1.000000
 10
340.810850
 20
368.579400
  0
SEQEND
  0
POLYLINE
  8
ViaHoles
 66
1
 10
0.000000
 20
0.000000
 30
0.000000
 40
0.317500
 41
0.317500
 70
1
  0
VERTEX
  8
ViaHoles
 42
1.000000
 10
411.003750
 20
355.828600
  0
VERTEX
  8
ViaHoles
 42
1.000000
 10
411.321250
 20
355.828600
  0
SEQEND
  0
POLYLINE
  8
ViaHoles
 66
1
 10
0.000000
 20
0.000000
 30
0.000000
 40
0.317500
 41
0.317500
 70
1
  0
VERTEX
  8
ViaHoles
 42
1.000000
 10
411.003750
 20
357.835200
  0
VERTEX
  8
ViaHoles
 42
1.000000
 10
411.321250
 20
357.835200
  0
SEQEND
  0
POLYLINE
  8
ViaHoles
 66
1
 10
0.000000
 20
0.000000
 30
0.000000
 40
0.317500
 41
0.317500
 70
1
  0
VERTEX
  8
ViaHoles
 42
1.000000
 10
363.759750
 20
355.193600
  0
VERTEX
  8
ViaHoles
 42
1.000000
 10
364.077250
 20
355.193600
  0
SEQEND
  0
POLYLINE
  8
ViaHoles
 66
1
 10
0.000000
 20
0.000000
 30
0.000000
 40
0.317500
 41
0.317500
 70
1
  0
VERTEX
  8
ViaHoles
 42
1.000000
 10
445.293750
 20
347.446600
  0
VERTEX
  8
ViaHoles
 42
1.000000
 10
445.611250
 20
347.446600
  0
SEQEND
  0
POLYLINE
  8
ViaHoles
 66
1
 10
0.000000
 20
0.000000
 30
0.000000
 40
0.317500
 41
0.317500
 70
1
  0
VERTEX
  8
ViaHoles
 42
1.000000
 10
451.643750
 20
344.144600
  0
VERTEX
  8
ViaHoles
 42
1.000000
 10
451.961250
 20
344.144600
  0
SEQEND
  0
POLYLINE
  8
ViaHoles
 66
1
 10
0.000000
 20
0.000000
 30
0.000000
 40
0.317500
 41
0.317500
 70
1
  0
VERTEX
  8
ViaHoles
 42
1.000000
 10
363.759750
 20
356.463600
  0
VERTEX
  8
ViaHoles
 42
1.000000
 10
364.077250
 20
356.463600
  0
SEQEND
  0
POLYLINE
  8
ViaHoles
 66
1
 10
0.000000
 20
0.000000
 30
0.000000
 40
0.317500
 41
0.317500
 70
1
  0
VERTEX
  8
ViaHoles
 42
1.000000
 10
409.733750
 20
355.828600
  0
VERTEX
  8
ViaHoles
 42
1.000000
 10
410.051250
 20
355.828600
  0
SEQEND
  0
POLYLINE
  8
ViaHoles
 66
1
 10
0.000000
 20
0.000000
 30
0.000000
 40
0.317500
 41
0.317500
 70
1
  0
VERTEX
  8
ViaHoles
 42
1.000000
 10
358.349550
 20
357.733600
  0
VERTEX
  8
ViaHoles
 42
1.000000
 10
358.667050
 20
357.733600
  0
SEQEND
  0
POLYLINE
  8
ViaHoles
 66
1
 10
0.000000
 20
0.000000
 30
0.000000
 40
0.317500
 41
0.317500
 70
1
  0
VERTEX
  8
ViaHoles
 42
1.000000
 10
329.317350
 20
355.650800
  0
VERTEX
  8
ViaHoles
 42
1.000000
 10
329.634850
 20
355.650800
  0
SEQEND
  0
POLYLINE
  8
ViaHoles
 66
1
 10
0.000000
 20
0.000000
 30
0.000000
 40
0.317500
 41
0.317500
 70
1
  0
VERTEX
  8
ViaHoles
 42
1.000000
 10
329.317350
 20
360.730800
  0
VERTEX
  8
ViaHoles
 42
1.000000
 10
329.634850
 20
360.730800
  0
SEQEND
  0
POLYLINE
  8
ViaHoles
 66
1
 10
0.000000
 20
0.000000
 30
0.000000
 40
0.317500
 41
0.317500
 70
1
  0
VERTEX
  8
ViaHoles
 42
1.000000
 10
426.980350
 20
353.212400
  0
VERTEX
  8
ViaHoles
 42
1.000000
 10
427.297850
 20
353.212400
  0
SEQEND
  0
POLYLINE
  8
ViaHoles
 66
1
 10
0.000000
 20
0.000000
 30
0.000000
 40
0.317500
 41
0.317500
 70
1
  0
VERTEX
  8
ViaHoles
 42
1.000000
 10
426.751750
 20
343.636600
  0
VERTEX
  8
ViaHoles
 42
1.000000
 10
427.069250
 20
343.636600
  0
SEQEND
  0
POLYLINE
  8
ViaHoles
 66
1
 10
0.000000
 20
0.000000
 30
0.000000
 40
0.317500
 41
0.317500
 70
1
  0
VERTEX
  8
ViaHoles
 42
1.000000
 10
435.641750
 20
371.957600
  0
VERTEX
  8
ViaHoles
 42
1.000000
 10
435.959250
 20
371.957600
  0
SEQEND
  0
POLYLINE
  8
ViaHoles
 66
1
 10
0.000000
 20
0.000000
 30
0.000000
 40
0.317500
 41
0.317500
 70
1
  0
VERTEX
  8
ViaHoles
 42
1.000000
 10
456.342750
 20
355.066600
  0
VERTEX
  8
ViaHoles
 42
1.000000
 10
456.660250
 20
355.066600
  0
SEQEND
  0
POLYLINE
  8
ViaHoles
 66
1
 10
0.000000
 20
0.000000
 30
0.000000
 40
0.317500
 41
0.317500
 70
1
  0
VERTEX
  8
ViaHoles
 42
1.000000
 10
426.548550
 20
362.991400
  0
VERTEX
  8
ViaHoles
 42
1.000000
 10
426.866050
 20
362.991400
  0
SEQEND
  0
POLYLINE
  8
ViaHoles
 66
1
 10
0.000000
 20
0.000000
 30
0.000000
 40
0.317500
 41
0.317500
 70
1
  0
VERTEX
  8
ViaHoles
 42
1.000000
 10
426.827950
 20
354.761800
  0
VERTEX
  8
ViaHoles
 42
1.000000
 10
427.145450
 20
354.761800
  0
SEQEND
  0
POLYLINE
  8
ViaHoles
 66
1
 10
0.000000
 20
0.000000
 30
0.000000
 40
0.317500
 41
0.317500
 70
1
  0
VERTEX
  8
ViaHoles
 42
1.000000
 10
434.066950
 20
341.477600
  0
VERTEX
  8
ViaHoles
 42
1.000000
 10
434.384450
 20
341.477600
  0
SEQEND
  0
POLYLINE
  8
ViaHoles
 66
1
 10
0.000000
 20
0.000000
 30
0.000000
 40
0.317500
 41
0.317500
 70
1
  0
VERTEX
  8
ViaHoles
 42
1.000000
 10
395.890750
 20
340.080600
  0
VERTEX
  8
ViaHoles
 42
1.000000
 10
396.208250
 20
340.080600
  0
SEQEND
  0
POLYLINE
  8
ViaHoles
 66
1
 10
0.000000
 20
0.000000
 30
0.000000
 40
0.317500
 41
0.317500
 70
1
  0
VERTEX
  8
ViaHoles
 42
1.000000
 10
408.590750
 20
344.881200
  0
VERTEX
  8
ViaHoles
 42
1.000000
 10
408.908250
 20
344.881200
  0
SEQEND
  0
POLYLINE
  8
ViaHoles
 66
1
 10
0.000000
 20
0.000000
 30
0.000000
 40
0.317500
 41
0.317500
 70
1
  0
VERTEX
  8
ViaHoles
 42
1.000000
 10
403.104350
 20
340.995000
  0
VERTEX
  8
ViaHoles
 42
1.000000
 10
403.421850
 20
340.995000
  0
SEQEND
  0
POLYLINE
  8
ViaHoles
 66
1
 10
0.000000
 20
0.000000
 30
0.000000
 40
0.317500
 41
0.317500
 70
1
  0
VERTEX
  8
ViaHoles
 42
1.000000
 10
416.642550
 20
348.691200
  0
VERTEX
  8
ViaHoles
 42
1.000000
 10
416.960050
 20
348.691200
  0
SEQEND
  0
POLYLINE
  8
ViaHoles
 66
1
 10
0.000000
 20
0.000000
 30
0.000000
 40
0.317500
 41
0.317500
 70
1
  0
VERTEX
  8
ViaHoles
 42
1.000000
 10
415.093150
 20
342.468200
  0
VERTEX
  8
ViaHoles
 42
1.000000
 10
415.410650
 20
342.468200
  0
SEQEND
  0
POLYLINE
  8
ViaHoles
 66
1
 10
0.000000
 20
0.000000
 30
0.000000
 40
0.317500
 41
0.317500
 70
1
  0
VERTEX
  8
ViaHoles
 42
1.000000
 10
402.951950
 20
343.179400
  0
VERTEX
  8
ViaHoles
 42
1.000000
 10
403.269450
 20
343.179400
  0
SEQEND
  0
POLYLINE
  8
ViaHoles
 66
1
 10
0.000000
 20
0.000000
 30
0.000000
 40
0.317500
 41
0.317500
 70
1
  0
VERTEX
  8
ViaHoles
 42
1.000000
 10
399.751550
 20
343.179400
  0
VERTEX
  8
ViaHoles
 42
1.000000
 10
400.069050
 20
343.179400
  0
SEQEND
  0
POLYLINE
  8
ViaHoles
 66
1
 10
0.000000
 20
0.000000
 30
0.000000
 40
0.317500
 41
0.317500
 70
1
  0
VERTEX
  8
ViaHoles
 42
1.000000
 10
392.207750
 20
339.877400
  0
VERTEX
  8
ViaHoles
 42
1.000000
 10
392.525250
 20
339.877400
  0
SEQEND
  0
POLYLINE
  8
ViaHoles
 66
1
 10
0.000000
 20
0.000000
 30
0.000000
 40
0.317500
 41
0.317500
 70
1
  0
VERTEX
  8
ViaHoles
 42
1.000000
 10
384.460750
 20
338.759800
  0
VERTEX
  8
ViaHoles
 42
1.000000
 10
384.778250
 20
338.759800
  0
SEQEND
  0
POLYLINE
  8
ViaHoles
 66
1
 10
0.000000
 20
0.000000
 30
0.000000
 40
0.317500
 41
0.317500
 70
1
  0
VERTEX
  8
ViaHoles
 42
1.000000
 10
405.390350
 20
341.757000
  0
VERTEX
  8
ViaHoles
 42
1.000000
 10
405.707850
 20
341.757000
  0
SEQEND
  0
POLYLINE
  8
ViaHoles
 66
1
 10
0.000000
 20
0.000000
 30
0.000000
 40
0.317500
 41
0.317500
 70
1
  0
VERTEX
  8
ViaHoles
 42
1.000000
 10
425.913550
 20
353.212400
  0
VERTEX
  8
ViaHoles
 42
1.000000
 10
426.231050
 20
353.212400
  0
SEQEND
  0
POLYLINE
  8
ViaHoles
 66
1
 10
0.000000
 20
0.000000
 30
0.000000
 40
0.317500
 41
0.317500
 70
1
  0
VERTEX
  8
ViaHoles
 42
1.000000
 10
431.577750
 20
356.031800
  0
VERTEX
  8
ViaHoles
 42
1.000000
 10
431.895250
 20
356.031800
  0
SEQEND
  0
POLYLINE
  8
ViaHoles
 66
1
 10
0.000000
 20
0.000000
 30
0.000000
 40
0.317500
 41
0.317500
 70
1
  0
VERTEX
  8
ViaHoles
 42
1.000000
 10
423.246550
 20
352.323400
  0
VERTEX
  8
ViaHoles
 42
1.000000
 10
423.564050
 20
352.323400
  0
SEQEND
  0
POLYLINE
  8
ViaHoles
 66
1
 10
0.000000
 20
0.000000
 30
0.000000
 40
0.317500
 41
0.317500
 70
1
  0
VERTEX
  8
ViaHoles
 42
1.000000
 10
384.968750
 20
350.951800
  0
VERTEX
  8
ViaHoles
 42
1.000000
 10
385.286250
 20
350.951800
  0
SEQEND
  0
POLYLINE
  8
ViaHoles
 66
1
 10
0.000000
 20
0.000000
 30
0.000000
 40
0.317500
 41
0.317500
 70
1
  0
VERTEX
  8
ViaHoles
 42
1.000000
 10
375.367550
 20
341.706200
  0
VERTEX
  8
ViaHoles
 42
1.000000
 10
375.685050
 20
341.706200
  0
SEQEND
  0
POLYLINE
  8
ViaHoles
 66
1
 10
0.000000
 20
0.000000
 30
0.000000
 40
0.317500
 41
0.317500
 70
1
  0
VERTEX
  8
ViaHoles
 42
1.000000
 10
431.018950
 20
351.586800
  0
VERTEX
  8
ViaHoles
 42
1.000000
 10
431.336450
 20
351.586800
  0
SEQEND
  0
POLYLINE
  8
ViaHoles
 66
1
 10
0.000000
 20
0.000000
 30
0.000000
 40
0.317500
 41
0.317500
 70
1
  0
VERTEX
  8
ViaHoles
 42
1.000000
 10
399.751550
 20
358.876600
  0
VERTEX
  8
ViaHoles
 42
1.000000
 10
400.069050
 20
358.876600
  0
SEQEND
  0
POLYLINE
  8
ViaHoles
 66
1
 10
0.000000
 20
0.000000
 30
0.000000
 40
0.317500
 41
0.317500
 70
1
  0
VERTEX
  8
ViaHoles
 42
1.000000
 10
408.463750
 20
361.315000
  0
VERTEX
  8
ViaHoles
 42
1.000000
 10
408.781250
 20
361.315000
  0
SEQEND
  0
POLYLINE
  8
ViaHoles
 66
1
 10
0.000000
 20
0.000000
 30
0.000000
 40
0.317500
 41
0.317500
 70
1
  0
VERTEX
  8
ViaHoles
 42
1.000000
 10
430.561750
 20
371.500400
  0
VERTEX
  8
ViaHoles
 42
1.000000
 10
430.879250
 20
371.500400
  0
SEQEND
  0
POLYLINE
  8
ViaHoles
 66
1
 10
0.000000
 20
0.000000
 30
0.000000
 40
0.317500
 41
0.317500
 70
1
  0
VERTEX
  8
ViaHoles
 42
1.000000
 10
422.890950
 20
364.109000
  0
VERTEX
  8
ViaHoles
 42
1.000000
 10
423.208450
 20
364.109000
  0
SEQEND
  0
POLYLINE
  8
ViaHoles
 66
1
 10
0.000000
 20
0.000000
 30
0.000000
 40
0.317500
 41
0.317500
 70
1
  0
VERTEX
  8
ViaHoles
 42
1.000000
 10
445.065150
 20
374.853200
  0
VERTEX
  8
ViaHoles
 42
1.000000
 10
445.382650
 20
374.853200
  0
SEQEND
  0
POLYLINE
  8
ViaHoles
 66
1
 10
0.000000
 20
0.000000
 30
0.000000
 40
0.317500
 41
0.317500
 70
1
  0
VERTEX
  8
ViaHoles
 42
1.000000
 10
415.601150
 20
340.842600
  0
VERTEX
  8
ViaHoles
 42
1.000000
 10
415.918650
 20
340.842600
  0
SEQEND
  0
POLYLINE
  8
ViaHoles
 66
1
 10
0.000000
 20
0.000000
 30
0.000000
 40
0.317500
 41
0.317500
 70
1
  0
VERTEX
  8
ViaHoles
 42
1.000000
 10
413.975550
 20
343.636600
  0
VERTEX
  8
ViaHoles
 42
1.000000
 10
414.293050
 20
343.636600
  0
SEQEND
  0
POLYLINE
  8
ViaHoles
 66
1
 10
0.000000
 20
0.000000
 30
0.000000
 40
0.317500
 41
0.317500
 70
1
  0
VERTEX
  8
ViaHoles
 42
1.000000
 10
418.369750
 20
338.810600
  0
VERTEX
  8
ViaHoles
 42
1.000000
 10
418.687250
 20
338.810600
  0
SEQEND
  0
POLYLINE
  8
ViaHoles
 66
1
 10
0.000000
 20
0.000000
 30
0.000000
 40
0.317500
 41
0.317500
 70
1
  0
VERTEX
  8
ViaHoles
 42
1.000000
 10
419.842950
 20
343.560400
  0
VERTEX
  8
ViaHoles
 42
1.000000
 10
420.160450
 20
343.560400
  0
SEQEND
  0
POLYLINE
  8
ViaHoles
 66
1
 10
0.000000
 20
0.000000
 30
0.000000
 40
0.317500
 41
0.317500
 70
1
  0
VERTEX
  8
ViaHoles
 42
1.000000
 10
365.182150
 20
369.112800
  0
VERTEX
  8
ViaHoles
 42
1.000000
 10
365.499650
 20
369.112800
  0
SEQEND
  0
POLYLINE
  8
ViaHoles
 66
1
 10
0.000000
 20
0.000000
 30
0.000000
 40
0.317500
 41
0.317500
 70
1
  0
VERTEX
  8
ViaHoles
 42
1.000000
 10
347.783150
 20
369.112800
  0
VERTEX
  8
ViaHoles
 42
1.000000
 10
348.100650
 20
369.112800
  0
SEQEND
  0
POLYLINE
  8
ViaHoles
 66
1
 10
0.000000
 20
0.000000
 30
0.000000
 40
0.317500
 41
0.317500
 70
1
  0
VERTEX
  8
ViaHoles
 42
1.000000
 10
417.226750
 20
371.652800
  0
VERTEX
  8
ViaHoles
 42
1.000000
 10
417.544250
 20
371.652800
  0
SEQEND
  0
POLYLINE
  8
ViaHoles
 66
1
 10
0.000000
 20
0.000000
 30
0.000000
 40
0.317500
 41
0.317500
 70
1
  0
VERTEX
  8
ViaHoles
 42
1.000000
 10
364.343950
 20
373.684800
  0
VERTEX
  8
ViaHoles
 42
1.000000
 10
364.661450
 20
373.684800
  0
SEQEND
  0
POLYLINE
  8
ViaHoles
 66
1
 10
0.000000
 20
0.000000
 30
0.000000
 40
0.317500
 41
0.317500
 70
1
  0
VERTEX
  8
ViaHoles
 42
1.000000
 10
329.114150
 20
359.308400
  0
VERTEX
  8
ViaHoles
 42
1.000000
 10
329.431650
 20
359.308400
  0
SEQEND
  0
POLYLINE
  8
ViaHoles
 66
1
 10
0.000000
 20
0.000000
 30
0.000000
 40
0.317500
 41
0.317500
 70
1
  0
VERTEX
  8
ViaHoles
 42
1.000000
 10
454.640950
 20
366.420400
  0
VERTEX
  8
ViaHoles
 42
1.000000
 10
454.958450
 20
366.420400
  0
SEQEND
  0
POLYLINE
  8
ViaHoles
 66
1
 10
0.000000
 20
0.000000
 30
0.000000
 40
0.317500
 41
0.317500
 70
1
  0
VERTEX
  8
ViaHoles
 42
1.000000
 10
459.289150
 20
362.686600
  0
VERTEX
  8
ViaHoles
 42
1.000000
 10
459.606650
 20
362.686600
  0
SEQEND
  0
POLYLINE
  8
ViaHoles
 66
1
 10
0.000000
 20
0.000000
 30
0.000000
 40
0.317500
 41
0.317500
 70
1
  0
VERTEX
  8
ViaHoles
 42
1.000000
 10
452.939150
 20
365.277400
  0
VERTEX
  8
ViaHoles
 42
1.000000
 10
453.256650
 20
365.277400
  0
SEQEND
  0
POLYLINE
  8
ViaHoles
 66
1
 10
0.000000
 20
0.000000
 30
0.000000
 40
0.317500
 41
0.317500
 70
1
  0
VERTEX
  8
ViaHoles
 42
1.000000
 10
452.939150
 20
351.028000
  0
VERTEX
  8
ViaHoles
 42
1.000000
 10
453.256650
 20
351.028000
  0
SEQEND
  0
POLYLINE
  8
ViaHoles
 66
1
 10
0.000000
 20
0.000000
 30
0.000000
 40
0.317500
 41
0.317500
 70
1
  0
VERTEX
  8
ViaHoles
 42
1.000000
 10
452.227950
 20
366.318800
  0
VERTEX
  8
ViaHoles
 42
1.000000
 10
452.545450
 20
366.318800
  0
SEQEND
  0
POLYLINE
  8
ViaHoles
 66
1
 10
0.000000
 20
0.000000
 30
0.000000
 40
0.317500
 41
0.317500
 70
1
  0
VERTEX
  8
ViaHoles
 42
1.000000
 10
452.227950
 20
349.758000
  0
VERTEX
  8
ViaHoles
 42
1.000000
 10
452.545450
 20
349.758000
  0
SEQEND
  0
POLYLINE
  8
ViaHoles
 66
1
 10
0.000000
 20
0.000000
 30
0.000000
 40
0.317500
 41
0.317500
 70
1
  0
VERTEX
  8
ViaHoles
 42
1.000000
 10
393.782550
 20
363.956600
  0
VERTEX
  8
ViaHoles
 42
1.000000
 10
394.100050
 20
363.956600
  0
SEQEND
  0
POLYLINE
  8
ViaHoles
 66
1
 10
0.000000
 20
0.000000
 30
0.000000
 40
0.317500
 41
0.317500
 70
1
  0
VERTEX
  8
ViaHoles
 42
1.000000
 10
432.441350
 20
358.876600
  0
VERTEX
  8
ViaHoles
 42
1.000000
 10
432.758850
 20
358.876600
  0
SEQEND
  0
POLYLINE
  8
ViaHoles
 66
1
 10
0.000000
 20
0.000000
 30
0.000000
 40
0.317500
 41
0.317500
 70
1
  0
VERTEX
  8
ViaHoles
 42
1.000000
 10
433.101750
 20
362.051600
  0
VERTEX
  8
ViaHoles
 42
1.000000
 10
433.419250
 20
362.051600
  0
SEQEND
  0
POLYLINE
  8
ViaHoles
 66
1
 10
0.000000
 20
0.000000
 30
0.000000
 40
0.317500
 41
0.317500
 70
1
  0
VERTEX
  8
ViaHoles
 42
1.000000
 10
425.253150
 20
363.372400
  0
VERTEX
  8
ViaHoles
 42
1.000000
 10
425.570650
 20
363.372400
  0
SEQEND
  0
POLYLINE
  8
ViaHoles
 66
1
 10
0.000000
 20
0.000000
 30
0.000000
 40
0.317500
 41
0.317500
 70
1
  0
VERTEX
  8
ViaHoles
 42
1.000000
 10
431.831750
 20
372.160800
  0
VERTEX
  8
ViaHoles
 42
1.000000
 10
432.149250
 20
372.160800
  0
SEQEND
  0
POLYLINE
  8
ViaHoles
 66
1
 10
0.000000
 20
0.000000
 30
0.000000
 40
0.317500
 41
0.317500
 70
1
  0
VERTEX
  8
ViaHoles
 42
1.000000
 10
329.114150
 20
364.540800
  0
VERTEX
  8
ViaHoles
 42
1.000000
 10
329.431650
 20
364.540800
  0
SEQEND
  0
POLYLINE
  8
ViaHoles
 66
1
 10
0.000000
 20
0.000000
 30
0.000000
 40
0.317500
 41
0.317500
 70
1
  0
VERTEX
  8
ViaHoles
 42
1.000000
 10
392.080750
 20
342.112600
  0
VERTEX
  8
ViaHoles
 42
1.000000
 10
392.398250
 20
342.112600
  0
SEQEND
  0
POLYLINE
  8
ViaHoles
 66
1
 10
0.000000
 20
0.000000
 30
0.000000
 40
0.317500
 41
0.317500
 70
1
  0
VERTEX
  8
ViaHoles
 42
1.000000
 10
371.684550
 20
343.179400
  0
VERTEX
  8
ViaHoles
 42
1.000000
 10
372.002050
 20
343.179400
  0
SEQEND
  0
POLYLINE
  8
ViaHoles
 66
1
 10
0.000000
 20
0.000000
 30
0.000000
 40
0.317500
 41
0.317500
 70
1
  0
VERTEX
  8
ViaHoles
 42
1.000000
 10
354.666550
 20
367.512600
  0
VERTEX
  8
ViaHoles
 42
1.000000
 10
354.984050
 20
367.512600
  0
SEQEND
  0
POLYLINE
  8
ViaHoles
 66
1
 10
0.000000
 20
0.000000
 30
0.000000
 40
0.317500
 41
0.317500
 70
1
  0
VERTEX
  8
ViaHoles
 42
1.000000
 10
365.537750
 20
367.792000
  0
VERTEX
  8
ViaHoles
 42
1.000000
 10
365.855250
 20
367.792000
  0
SEQEND
  0
POLYLINE
  8
ViaHoles
 66
1
 10
0.000000
 20
0.000000
 30
0.000000
 40
0.317500
 41
0.317500
 70
1
  0
VERTEX
  8
ViaHoles
 42
1.000000
 10
456.088750
 20
341.858600
  0
VERTEX
  8
ViaHoles
 42
1.000000
 10
456.406250
 20
341.858600
  0
SEQEND
  0
POLYLINE
  8
ViaHoles
 66
1
 10
0.000000
 20
0.000000
 30
0.000000
 40
0.317500
 41
0.317500
 70
1
  0
VERTEX
  8
ViaHoles
 42
1.000000
 10
452.761350
 20
342.138000
  0
VERTEX
  8
ViaHoles
 42
1.000000
 10
453.078850
 20
342.138000
  0
SEQEND
  0
POLYLINE
  8
ViaHoles
 66
1
 10
0.000000
 20
0.000000
 30
0.000000
 40
0.317500
 41
0.317500
 70
1
  0
VERTEX
  8
ViaHoles
 42
1.000000
 10
460.279750
 20
338.937600
  0
VERTEX
  8
ViaHoles
 42
1.000000
 10
460.597250
 20
338.937600
  0
SEQEND
  0
POLYLINE
  8
ViaHoles
 66
1
 10
0.000000
 20
0.000000
 30
0.000000
 40
0.317500
 41
0.317500
 70
1
  0
VERTEX
  8
ViaHoles
 42
1.000000
 10
449.103750
 20
342.493600
  0
VERTEX
  8
ViaHoles
 42
1.000000
 10
449.421250
 20
342.493600
  0
SEQEND
  0
POLYLINE
  8
ViaHoles
 66
1
 10
0.000000
 20
0.000000
 30
0.000000
 40
0.317500
 41
0.317500
 70
1
  0
VERTEX
  8
ViaHoles
 42
1.000000
 10
443.160150
 20
340.156800
  0
VERTEX
  8
ViaHoles
 42
1.000000
 10
443.477650
 20
340.156800
  0
SEQEND
  0
POLYLINE
  8
ViaHoles
 66
1
 10
0.000000
 20
0.000000
 30
0.000000
 40
0.317500
 41
0.317500
 70
1
  0
VERTEX
  8
ViaHoles
 42
1.000000
 10
444.836550
 20
344.347800
  0
VERTEX
  8
ViaHoles
 42
1.000000
 10
445.154050
 20
344.347800
  0
SEQEND
  0
POLYLINE
  8
ViaHoles
 66
1
 10
0.000000
 20
0.000000
 30
0.000000
 40
0.317500
 41
0.317500
 70
1
  0
VERTEX
  8
ViaHoles
 42
1.000000
 10
352.405950
 20
359.130600
  0
VERTEX
  8
ViaHoles
 42
1.000000
 10
352.723450
 20
359.130600
  0
SEQEND
  0
POLYLINE
  8
ViaHoles
 66
1
 10
0.000000
 20
0.000000
 30
0.000000
 40
0.317500
 41
0.317500
 70
1
  0
VERTEX
  8
ViaHoles
 42
1.000000
 10
447.224150
 20
349.986600
  0
VERTEX
  8
ViaHoles
 42
1.000000
 10
447.541650
 20
349.986600
  0
SEQEND
  0
POLYLINE
  8
ViaHoles
 66
1
 10
0.000000
 20
0.000000
 30
0.000000
 40
0.317500
 41
0.317500
 70
1
  0
VERTEX
  8
ViaHoles
 42
1.000000
 10
451.161150
 20
373.761000
  0
VERTEX
  8
ViaHoles
 42
1.000000
 10
451.478650
 20
373.761000
  0
SEQEND
  0
POLYLINE
  8
ViaHoles
 66
1
 10
0.000000
 20
0.000000
 30
0.000000
 40
0.317500
 41
0.317500
 70
1
  0
VERTEX
  8
ViaHoles
 42
1.000000
 10
358.146350
 20
359.562400
  0
VERTEX
  8
ViaHoles
 42
1.000000
 10
358.463850
 20
359.562400
  0
SEQEND
  0
POLYLINE
  8
ViaHoles
 66
1
 10
0.000000
 20
0.000000
 30
0.000000
 40
0.317500
 41
0.317500
 70
1
  0
VERTEX
  8
ViaHoles
 42
1.000000
 10
354.742750
 20
356.743000
  0
VERTEX
  8
ViaHoles
 42
1.000000
 10
355.060250
 20
356.743000
  0
SEQEND
  0
POLYLINE
  8
ViaHoles
 66
1
 10
0.000000
 20
0.000000
 30
0.000000
 40
0.317500
 41
0.317500
 70
1
  0
VERTEX
  8
ViaHoles
 42
1.000000
 10
450.297550
 20
351.256600
  0
VERTEX
  8
ViaHoles
 42
1.000000
 10
450.615050
 20
351.256600
  0
SEQEND
  0
POLYLINE
  8
ViaHoles
 66
1
 10
0.000000
 20
0.000000
 30
0.000000
 40
0.317500
 41
0.317500
 70
1
  0
VERTEX
  8
ViaHoles
 42
1.000000
 10
345.776550
 20
336.550000
  0
VERTEX
  8
ViaHoles
 42
1.000000
 10
346.094050
 20
336.550000
  0
SEQEND
  0
POLYLINE
  8
ViaHoles
 66
1
 10
0.000000
 20
0.000000
 30
0.000000
 40
0.317500
 41
0.317500
 70
1
  0
VERTEX
  8
ViaHoles
 42
1.000000
 10
439.096150
 20
335.610200
  0
VERTEX
  8
ViaHoles
 42
1.000000
 10
439.413650
 20
335.610200
  0
SEQEND
  0
POLYLINE
  8
ViaHoles
 66
1
 10
0.000000
 20
0.000000
 30
0.000000
 40
0.317500
 41
0.317500
 70
1
  0
VERTEX
  8
ViaHoles
 42
1.000000
 10
447.401950
 20
352.526600
  0
VERTEX
  8
ViaHoles
 42
1.000000
 10
447.719450
 20
352.526600
  0
SEQEND
  0
POLYLINE
  8
ViaHoles
 66
1
 10
0.000000
 20
0.000000
 30
0.000000
 40
0.317500
 41
0.317500
 70
1
  0
VERTEX
  8
ViaHoles
 42
1.000000
 10
348.697550
 20
364.515400
  0
VERTEX
  8
ViaHoles
 42
1.000000
 10
349.015050
 20
364.515400
  0
SEQEND
  0
POLYLINE
  8
ViaHoles
 66
1
 10
0.000000
 20
0.000000
 30
0.000000
 40
0.317500
 41
0.317500
 70
1
  0
VERTEX
  8
ViaHoles
 42
1.000000
 10
455.555350
 20
356.336600
  0
VERTEX
  8
ViaHoles
 42
1.000000
 10
455.872850
 20
356.336600
  0
SEQEND
  0
POLYLINE
  8
ViaHoles
 66
1
 10
0.000000
 20
0.000000
 30
0.000000
 40
0.317500
 41
0.317500
 70
1
  0
VERTEX
  8
ViaHoles
 42
1.000000
 10
437.241950
 20
350.824800
  0
VERTEX
  8
ViaHoles
 42
1.000000
 10
437.559450
 20
350.824800
  0
SEQEND
  0
POLYLINE
  8
ViaHoles
 66
1
 10
0.000000
 20
0.000000
 30
0.000000
 40
0.317500
 41
0.317500
 70
1
  0
VERTEX
  8
ViaHoles
 42
1.000000
 10
443.388750
 20
360.146600
  0
VERTEX
  8
ViaHoles
 42
1.000000
 10
443.706250
 20
360.146600
  0
SEQEND
  0
POLYLINE
  8
ViaHoles
 66
1
 10
0.000000
 20
0.000000
 30
0.000000
 40
0.317500
 41
0.317500
 70
1
  0
VERTEX
  8
ViaHoles
 42
1.000000
 10
425.481750
 20
347.446600
  0
VERTEX
  8
ViaHoles
 42
1.000000
 10
425.799250
 20
347.446600
  0
SEQEND
  0
POLYLINE
  8
ViaHoles
 66
1
 10
0.000000
 20
0.000000
 30
0.000000
 40
0.317500
 41
0.317500
 70
1
  0
VERTEX
  8
ViaHoles
 42
1.000000
 10
450.297550
 20
360.146600
  0
VERTEX
  8
ViaHoles
 42
1.000000
 10
450.615050
 20
360.146600
  0
SEQEND
  0
POLYLINE
  8
ViaHoles
 66
1
 10
0.000000
 20
0.000000
 30
0.000000
 40
0.317500
 41
0.317500
 70
1
  0
VERTEX
  8
ViaHoles
 42
1.000000
 10
358.247950
 20
356.336600
  0
VERTEX
  8
ViaHoles
 42
1.000000
 10
358.565450
 20
356.336600
  0
SEQEND
  0
POLYLINE
  8
ViaHoles
 66
1
 10
0.000000
 20
0.000000
 30
0.000000
 40
0.317500
 41
0.317500
 70
1
  0
VERTEX
  8
ViaHoles
 42
1.000000
 10
370.389150
 20
372.287800
  0
VERTEX
  8
ViaHoles
 42
1.000000
 10
370.706650
 20
372.287800
  0
SEQEND
  0
POLYLINE
  8
ViaHoles
 66
1
 10
0.000000
 20
0.000000
 30
0.000000
 40
0.317500
 41
0.317500
 70
1
  0
VERTEX
  8
ViaHoles
 42
1.000000
 10
367.315750
 20
358.571800
  0
VERTEX
  8
ViaHoles
 42
1.000000
 10
367.633250
 20
358.571800
  0
SEQEND
  0
POLYLINE
  8
ViaHoles
 66
1
 10
0.000000
 20
0.000000
 30
0.000000
 40
0.317500
 41
0.317500
 70
1
  0
VERTEX
  8
ViaHoles
 42
1.000000
 10
367.315750
 20
353.923600
  0
VERTEX
  8
ViaHoles
 42
1.000000
 10
367.633250
 20
353.923600
  0
SEQEND
  0
POLYLINE
  8
ViaHoles
 66
1
 10
0.000000
 20
0.000000
 30
0.000000
 40
0.317500
 41
0.317500
 70
1
  0
VERTEX
  8
ViaHoles
 42
1.000000
 10
366.020350
 20
362.229400
  0
VERTEX
  8
ViaHoles
 42
1.000000
 10
366.337850
 20
362.229400
  0
SEQEND
  0
POLYLINE
  8
ViaHoles
 66
1
 10
0.000000
 20
0.000000
 30
0.000000
 40
0.317500
 41
0.317500
 70
1
  0
VERTEX
  8
ViaHoles
 42
1.000000
 10
361.651550
 20
353.923600
  0
VERTEX
  8
ViaHoles
 42
1.000000
 10
361.969050
 20
353.923600
  0
SEQEND
  0
POLYLINE
  8
ViaHoles
 66
1
 10
0.000000
 20
0.000000
 30
0.000000
 40
0.317500
 41
0.317500
 70
1
  0
VERTEX
  8
ViaHoles
 42
1.000000
 10
363.251750
 20
357.606600
  0
VERTEX
  8
ViaHoles
 42
1.000000
 10
363.569250
 20
357.606600
  0
SEQEND
  0
POLYLINE
  8
ViaHoles
 66
1
 10
0.000000
 20
0.000000
 30
0.000000
 40
0.317500
 41
0.317500
 70
1
  0
VERTEX
  8
ViaHoles
 42
1.000000
 10
431.171350
 20
342.366600
  0
VERTEX
  8
ViaHoles
 42
1.000000
 10
431.488850
 20
342.366600
  0
SEQEND
  0
POLYLINE
  8
ViaHoles
 66
1
 10
0.000000
 20
0.000000
 30
0.000000
 40
0.317500
 41
0.317500
 70
1
  0
VERTEX
  8
ViaHoles
 42
1.000000
 10
428.809150
 20
348.894400
  0
VERTEX
  8
ViaHoles
 42
1.000000
 10
429.126650
 20
348.894400
  0
SEQEND
  0
POLYLINE
  8
ViaHoles
 66
1
 10
0.000000
 20
0.000000
 30
0.000000
 40
0.317500
 41
0.317500
 70
1
  0
VERTEX
  8
ViaHoles
 42
1.000000
 10
423.983150
 20
340.842600
  0
VERTEX
  8
ViaHoles
 42
1.000000
 10
424.300650
 20
340.842600
  0
SEQEND
  0
POLYLINE
  8
ViaHoles
 66
1
 10
0.000000
 20
0.000000
 30
0.000000
 40
0.317500
 41
0.317500
 70
1
  0
VERTEX
  8
ViaHoles
 42
1.000000
 10
424.211750
 20
349.351600
  0
VERTEX
  8
ViaHoles
 42
1.000000
 10
424.529250
 20
349.351600
  0
SEQEND
  0
POLYLINE
  8
ViaHoles
 66
1
 10
0.000000
 20
0.000000
 30
0.000000
 40
0.317500
 41
0.317500
 70
1
  0
VERTEX
  8
ViaHoles
 42
1.000000
 10
403.256750
 20
369.290600
  0
VERTEX
  8
ViaHoles
 42
1.000000
 10
403.574250
 20
369.290600
  0
SEQEND
  0
POLYLINE
  8
ViaHoles
 66
1
 10
0.000000
 20
0.000000
 30
0.000000
 40
0.317500
 41
0.317500
 70
1
  0
VERTEX
  8
ViaHoles
 42
1.000000
 10
456.545950
 20
360.146600
  0
VERTEX
  8
ViaHoles
 42
1.000000
 10
456.863450
 20
360.146600
  0
SEQEND
  0
POLYLINE
  8
ViaHoles
 66
1
 10
0.000000
 20
0.000000
 30
0.000000
 40
0.317500
 41
0.317500
 70
1
  0
VERTEX
  8
ViaHoles
 42
1.000000
 10
400.665950
 20
349.681800
  0
VERTEX
  8
ViaHoles
 42
1.000000
 10
400.983450
 20
349.681800
  0
SEQEND
  0
POLYLINE
  8
ViaHoles
 66
1
 10
0.000000
 20
0.000000
 30
0.000000
 40
0.317500
 41
0.317500
 70
1
  0
VERTEX
  8
ViaHoles
 42
1.000000
 10
396.043150
 20
359.892600
  0
VERTEX
  8
ViaHoles
 42
1.000000
 10
396.360650
 20
359.892600
  0
SEQEND
  0
POLYLINE
  8
ViaHoles
 66
1
 10
0.000000
 20
0.000000
 30
0.000000
 40
0.317500
 41
0.317500
 70
1
  0
VERTEX
  8
ViaHoles
 42
1.000000
 10
422.941750
 20
343.839800
  0
VERTEX
  8
ViaHoles
 42
1.000000
 10
423.259250
 20
343.839800
  0
SEQEND
  0
POLYLINE
  8
ViaHoles
 66
1
 10
0.000000
 20
0.000000
 30
0.000000
 40
0.317500
 41
0.317500
 70
1
  0
VERTEX
  8
ViaHoles
 42
1.000000
 10
447.020950
 20
355.777800
  0
VERTEX
  8
ViaHoles
 42
1.000000
 10
447.338450
 20
355.777800
  0
SEQEND
  0
POLYLINE
  8
ViaHoles
 66
1
 10
0.000000
 20
0.000000
 30
0.000000
 40
0.317500
 41
0.317500
 70
1
  0
VERTEX
  8
ViaHoles
 42
1.000000
 10
443.033150
 20
346.862400
  0
VERTEX
  8
ViaHoles
 42
1.000000
 10
443.350650
 20
346.862400
  0
SEQEND
  0
POLYLINE
  8
ViaHoles
 66
1
 10
0.000000
 20
0.000000
 30
0.000000
 40
0.317500
 41
0.317500
 70
1
  0
VERTEX
  8
ViaHoles
 42
1.000000
 10
407.041350
 20
337.388200
  0
VERTEX
  8
ViaHoles
 42
1.000000
 10
407.358850
 20
337.388200
  0
SEQEND
  0
POLYLINE
  8
ViaHoles
 66
1
 10
0.000000
 20
0.000000
 30
0.000000
 40
0.317500
 41
0.317500
 70
1
  0
VERTEX
  8
ViaHoles
 42
1.000000
 10
407.041350
 20
344.170000
  0
VERTEX
  8
ViaHoles
 42
1.000000
 10
407.358850
 20
344.170000
  0
SEQEND
  0
POLYLINE
  8
ViaHoles
 66
1
 10
0.000000
 20
0.000000
 30
0.000000
 40
0.317500
 41
0.317500
 70
1
  0
VERTEX
  8
ViaHoles
 42
1.000000
 10
407.041350
 20
353.136200
  0
VERTEX
  8
ViaHoles
 42
1.000000
 10
407.358850
 20
353.136200
  0
SEQEND
  0
POLYLINE
  8
ViaHoles
 66
1
 10
0.000000
 20
0.000000
 30
0.000000
 40
0.317500
 41
0.317500
 70
1
  0
VERTEX
  8
ViaHoles
 42
1.000000
 10
345.141550
 20
363.601000
  0
VERTEX
  8
ViaHoles
 42
1.000000
 10
345.459050
 20
363.601000
  0
SEQEND
  0
POLYLINE
  8
ViaHoles
 66
1
 10
0.000000
 20
0.000000
 30
0.000000
 40
0.317500
 41
0.317500
 70
1
  0
VERTEX
  8
ViaHoles
 42
1.000000
 10
464.623150
 20
355.549200
  0
VERTEX
  8
ViaHoles
 42
1.000000
 10
464.940650
 20
355.549200
  0
SEQEND
  0
POLYLINE
  8
ViaHoles
 66
1
 10
0.000000
 20
0.000000
 30
0.000000
 40
0.317500
 41
0.317500
 70
1
  0
VERTEX
  8
ViaHoles
 42
1.000000
 10
463.048350
 20
368.020600
  0
VERTEX
  8
ViaHoles
 42
1.000000
 10
463.365850
 20
368.020600
  0
SEQEND
  0
POLYLINE
  8
ViaHoles
 66
1
 10
0.000000
 20
0.000000
 30
0.000000
 40
0.317500
 41
0.317500
 70
1
  0
VERTEX
  8
ViaHoles
 42
1.000000
 10
354.945950
 20
361.035600
  0
VERTEX
  8
ViaHoles
 42
1.000000
 10
355.263450
 20
361.035600
  0
SEQEND
  0
POLYLINE
  8
ViaHoles
 66
1
 10
0.000000
 20
0.000000
 30
0.000000
 40
0.317500
 41
0.317500
 70
1
  0
VERTEX
  8
ViaHoles
 42
1.000000
 10
380.549150
 20
353.796600
  0
VERTEX
  8
ViaHoles
 42
1.000000
 10
380.866650
 20
353.796600
  0
SEQEND
  0
POLYLINE
  8
ViaHoles
 66
1
 10
0.000000
 20
0.000000
 30
0.000000
 40
0.317500
 41
0.317500
 70
1
  0
VERTEX
  8
ViaHoles
 42
1.000000
 10
397.211550
 20
349.300800
  0
VERTEX
  8
ViaHoles
 42
1.000000
 10
397.529050
 20
349.300800
  0
SEQEND
  0
POLYLINE
  8
ViaHoles
 66
1
 10
0.000000
 20
0.000000
 30
0.000000
 40
0.317500
 41
0.317500
 70
1
  0
VERTEX
  8
ViaHoles
 42
1.000000
 10
402.240750
 20
340.182200
  0
VERTEX
  8
ViaHoles
 42
1.000000
 10
402.558250
 20
340.182200
  0
SEQEND
  0
POLYLINE
  8
ViaHoles
 66
1
 10
0.000000
 20
0.000000
 30
0.000000
 40
0.317500
 41
0.317500
 70
1
  0
VERTEX
  8
ViaHoles
 42
1.000000
 10
400.107150
 20
340.182200
  0
VERTEX
  8
ViaHoles
 42
1.000000
 10
400.424650
 20
340.182200
  0
SEQEND
  0
POLYLINE
  8
ViaHoles
 66
1
 10
0.000000
 20
0.000000
 30
0.000000
 40
0.317500
 41
0.317500
 70
1
  0
VERTEX
  8
ViaHoles
 42
1.000000
 10
434.168550
 20
347.167200
  0
VERTEX
  8
ViaHoles
 42
1.000000
 10
434.486050
 20
347.167200
  0
SEQEND
  0
POLYLINE
  8
ViaHoles
 66
1
 10
0.000000
 20
0.000000
 30
0.000000
 40
0.317500
 41
0.317500
 70
1
  0
VERTEX
  8
ViaHoles
 42
1.000000
 10
430.612550
 20
361.315000
  0
VERTEX
  8
ViaHoles
 42
1.000000
 10
430.930050
 20
361.315000
  0
SEQEND
  0
POLYLINE
  8
ViaHoles
 66
1
 10
0.000000
 20
0.000000
 30
0.000000
 40
0.317500
 41
0.317500
 70
1
  0
VERTEX
  8
ViaHoles
 42
1.000000
 10
419.817550
 20
359.587800
  0
VERTEX
  8
ViaHoles
 42
1.000000
 10
420.135050
 20
359.587800
  0
SEQEND
  0
POLYLINE
  8
ViaHoles
 66
1
 10
0.000000
 20
0.000000
 30
0.000000
 40
0.317500
 41
0.317500
 70
1
  0
VERTEX
  8
ViaHoles
 42
1.000000
 10
414.508950
 20
359.816400
  0
VERTEX
  8
ViaHoles
 42
1.000000
 10
414.826450
 20
359.816400
  0
SEQEND
  0
POLYLINE
  8
ViaHoles
 66
1
 10
0.000000
 20
0.000000
 30
0.000000
 40
0.317500
 41
0.317500
 70
1
  0
VERTEX
  8
ViaHoles
 42
1.000000
 10
401.427950
 20
361.264200
  0
VERTEX
  8
ViaHoles
 42
1.000000
 10
401.745450
 20
361.264200
  0
SEQEND
  0
POLYLINE
  8
ViaHoles
 66
1
 10
0.000000
 20
0.000000
 30
0.000000
 40
0.317500
 41
0.317500
 70
1
  0
VERTEX
  8
ViaHoles
 42
1.000000
 10
419.131750
 20
356.793800
  0
VERTEX
  8
ViaHoles
 42
1.000000
 10
419.449250
 20
356.793800
  0
SEQEND
  0
POLYLINE
  8
ViaHoles
 66
1
 10
0.000000
 20
0.000000
 30
0.000000
 40
0.317500
 41
0.317500
 70
1
  0
VERTEX
  8
ViaHoles
 42
1.000000
 10
431.831750
 20
362.051600
  0
VERTEX
  8
ViaHoles
 42
1.000000
 10
432.149250
 20
362.051600
  0
SEQEND
  0
POLYLINE
  8
ViaHoles
 66
1
 10
0.000000
 20
0.000000
 30
0.000000
 40
0.317500
 41
0.317500
 70
1
  0
VERTEX
  8
ViaHoles
 42
1.000000
 10
421.951150
 20
358.343200
  0
VERTEX
  8
ViaHoles
 42
1.000000
 10
422.268650
 20
358.343200
  0
SEQEND
  0
POLYLINE
  8
ViaHoles
 66
1
 10
0.000000
 20
0.000000
 30
0.000000
 40
0.317500
 41
0.317500
 70
1
  0
VERTEX
  8
ViaHoles
 42
1.000000
 10
421.671750
 20
352.323400
  0
VERTEX
  8
ViaHoles
 42
1.000000
 10
421.989250
 20
352.323400
  0
SEQEND
  0
POLYLINE
  8
ViaHoles
 66
1
 10
0.000000
 20
0.000000
 30
0.000000
 40
0.317500
 41
0.317500
 70
1
  0
VERTEX
  8
ViaHoles
 42
1.000000
 10
422.662350
 20
357.555800
  0
VERTEX
  8
ViaHoles
 42
1.000000
 10
422.979850
 20
357.555800
  0
SEQEND
  0
POLYLINE
  8
ViaHoles
 66
1
 10
0.000000
 20
0.000000
 30
0.000000
 40
0.317500
 41
0.317500
 70
1
  0
VERTEX
  8
ViaHoles
 42
1.000000
 10
422.306750
 20
363.245400
  0
VERTEX
  8
ViaHoles
 42
1.000000
 10
422.624250
 20
363.245400
  0
SEQEND
  0
POLYLINE
  8
ViaHoles
 66
1
 10
0.000000
 20
0.000000
 30
0.000000
 40
0.317500
 41
0.317500
 70
1
  0
VERTEX
  8
ViaHoles
 42
1.000000
 10
416.515550
 20
365.125000
  0
VERTEX
  8
ViaHoles
 42
1.000000
 10
416.833050
 20
365.125000
  0
SEQEND
  0
POLYLINE
  8
ViaHoles
 66
1
 10
0.000000
 20
0.000000
 30
0.000000
 40
0.317500
 41
0.317500
 70
1
  0
VERTEX
  8
ViaHoles
 42
1.000000
 10
412.324550
 20
362.991400
  0
VERTEX
  8
ViaHoles
 42
1.000000
 10
412.642050
 20
362.991400
  0
SEQEND
  0
POLYLINE
  8
ViaHoles
 66
1
 10
0.000000
 20
0.000000
 30
0.000000
 40
0.317500
 41
0.317500
 70
1
  0
VERTEX
  8
ViaHoles
 42
1.000000
 10
403.282150
 20
362.026200
  0
VERTEX
  8
ViaHoles
 42
1.000000
 10
403.599650
 20
362.026200
  0
SEQEND
  0
POLYLINE
  8
ViaHoles
 66
1
 10
0.000000
 20
0.000000
 30
0.000000
 40
0.317500
 41
0.317500
 70
1
  0
VERTEX
  8
ViaHoles
 42
1.000000
 10
427.081950
 20
364.642400
  0
VERTEX
  8
ViaHoles
 42
1.000000
 10
427.399450
 20
364.642400
  0
SEQEND
  0
POLYLINE
  8
ViaHoles
 66
1
 10
0.000000
 20
0.000000
 30
0.000000
 40
0.317500
 41
0.317500
 70
1
  0
VERTEX
  8
ViaHoles
 42
1.000000
 10
436.911750
 20
372.160800
  0
VERTEX
  8
ViaHoles
 42
1.000000
 10
437.229250
 20
372.160800
  0
SEQEND
  0
POLYLINE
  8
ViaHoles
 66
1
 10
0.000000
 20
0.000000
 30
0.000000
 40
0.317500
 41
0.317500
 70
1
  0
VERTEX
  8
ViaHoles
 42
1.000000
 10
438.181750
 20
371.830600
  0
VERTEX
  8
ViaHoles
 42
1.000000
 10
438.499250
 20
371.830600
  0
SEQEND
  0
POLYLINE
  8
ViaHoles
 66
1
 10
0.000000
 20
0.000000
 30
0.000000
 40
0.317500
 41
0.317500
 70
1
  0
VERTEX
  8
ViaHoles
 42
1.000000
 10
424.745150
 20
360.299000
  0
VERTEX
  8
ViaHoles
 42
1.000000
 10
425.062650
 20
360.299000
  0
SEQEND
  0
POLYLINE
  8
ViaHoles
 66
1
 10
0.000000
 20
0.000000
 30
0.000000
 40
0.317500
 41
0.317500
 70
1
  0
VERTEX
  8
ViaHoles
 42
1.000000
 10
440.721750
 20
372.160800
  0
VERTEX
  8
ViaHoles
 42
1.000000
 10
441.039250
 20
372.160800
  0
SEQEND
  0
POLYLINE
  8
ViaHoles
 66
1
 10
0.000000
 20
0.000000
 30
0.000000
 40
0.317500
 41
0.317500
 70
1
  0
VERTEX
  8
ViaHoles
 42
1.000000
 10
370.973350
 20
364.312200
  0
VERTEX
  8
ViaHoles
 42
1.000000
 10
371.290850
 20
364.312200
  0
SEQEND
  0
POLYLINE
  8
ViaHoles
 66
1
 10
0.000000
 20
0.000000
 30
0.000000
 40
0.317500
 41
0.317500
 70
1
  0
VERTEX
  8
ViaHoles
 42
1.000000
 10
371.481350
 20
356.387400
  0
VERTEX
  8
ViaHoles
 42
1.000000
 10
371.798850
 20
356.387400
  0
SEQEND
  0
POLYLINE
  8
ViaHoles
 66
1
 10
0.000000
 20
0.000000
 30
0.000000
 40
0.317500
 41
0.317500
 70
1
  0
VERTEX
  8
ViaHoles
 42
1.000000
 10
366.452150
 20
370.840000
  0
VERTEX
  8
ViaHoles
 42
1.000000
 10
366.769650
 20
370.840000
  0
SEQEND
  0
POLYLINE
  8
ViaHoles
 66
1
 10
0.000000
 20
0.000000
 30
0.000000
 40
0.317500
 41
0.317500
 70
1
  0
VERTEX
  8
ViaHoles
 42
1.000000
 10
366.452150
 20
366.471200
  0
VERTEX
  8
ViaHoles
 42
1.000000
 10
366.769650
 20
366.471200
  0
SEQEND
  0
POLYLINE
  8
ViaHoles
 66
1
 10
0.000000
 20
0.000000
 30
0.000000
 40
0.317500
 41
0.317500
 70
1
  0
VERTEX
  8
ViaHoles
 42
1.000000
 10
374.453150
 20
338.759800
  0
VERTEX
  8
ViaHoles
 42
1.000000
 10
374.770650
 20
338.759800
  0
SEQEND
  0
POLYLINE
  8
ViaHoles
 66
1
 10
0.000000
 20
0.000000
 30
0.000000
 40
0.317500
 41
0.317500
 70
1
  0
VERTEX
  8
ViaHoles
 42
1.000000
 10
441.661550
 20
365.760000
  0
VERTEX
  8
ViaHoles
 42
1.000000
 10
441.979050
 20
365.760000
  0
SEQEND
  0
POLYLINE
  8
ViaHoles
 66
1
 10
0.000000
 20
0.000000
 30
0.000000
 40
0.317500
 41
0.317500
 70
1
  0
VERTEX
  8
ViaHoles
 42
1.000000
 10
441.661550
 20
370.636800
  0
VERTEX
  8
ViaHoles
 42
1.000000
 10
441.979050
 20
370.636800
  0
SEQEND
  0
POLYLINE
  8
ViaHoles
 66
1
 10
0.000000
 20
0.000000
 30
0.000000
 40
0.317500
 41
0.317500
 70
1
  0
VERTEX
  8
ViaHoles
 42
1.000000
 10
432.441350
 20
357.606600
  0
VERTEX
  8
ViaHoles
 42
1.000000
 10
432.758850
 20
357.606600
  0
SEQEND
  0
POLYLINE
  8
ViaHoles
 66
1
 10
0.000000
 20
0.000000
 30
0.000000
 40
0.317500
 41
0.317500
 70
1
  0
VERTEX
  8
ViaHoles
 42
1.000000
 10
444.811150
 20
357.606600
  0
VERTEX
  8
ViaHoles
 42
1.000000
 10
445.128650
 20
357.606600
  0
SEQEND
  0
POLYLINE
  8
ViaHoles
 66
1
 10
0.000000
 20
0.000000
 30
0.000000
 40
0.317500
 41
0.317500
 70
1
  0
VERTEX
  8
ViaHoles
 42
1.000000
 10
434.371750
 20
362.889800
  0
VERTEX
  8
ViaHoles
 42
1.000000
 10
434.689250
 20
362.889800
  0
SEQEND
  0
POLYLINE
  8
ViaHoles
 66
1
 10
0.000000
 20
0.000000
 30
0.000000
 40
0.317500
 41
0.317500
 70
1
  0
VERTEX
  8
ViaHoles
 42
1.000000
 10
450.297550
 20
353.898200
  0
VERTEX
  8
ViaHoles
 42
1.000000
 10
450.615050
 20
353.898200
  0
SEQEND
  0
POLYLINE
  8
ViaHoles
 66
1
 10
0.000000
 20
0.000000
 30
0.000000
 40
0.317500
 41
0.317500
 70
1
  0
VERTEX
  8
ViaHoles
 42
1.000000
 10
439.807350
 20
338.353400
  0
VERTEX
  8
ViaHoles
 42
1.000000
 10
440.124850
 20
338.353400
  0
SEQEND
  0
POLYLINE
  8
ViaHoles
 66
1
 10
0.000000
 20
0.000000
 30
0.000000
 40
0.317500
 41
0.317500
 70
1
  0
VERTEX
  8
ViaHoles
 42
1.000000
 10
422.586150
 20
354.304600
  0
VERTEX
  8
ViaHoles
 42
1.000000
 10
422.903650
 20
354.304600
  0
SEQEND
  0
POLYLINE
  8
ViaHoles
 66
1
 10
0.000000
 20
0.000000
 30
0.000000
 40
0.317500
 41
0.317500
 70
1
  0
VERTEX
  8
ViaHoles
 42
1.000000
 10
443.769750
 20
336.905600
  0
VERTEX
  8
ViaHoles
 42
1.000000
 10
444.087250
 20
336.905600
  0
SEQEND
  0
POLYLINE
  8
ViaHoles
 66
1
 10
0.000000
 20
0.000000
 30
0.000000
 40
0.317500
 41
0.317500
 70
1
  0
VERTEX
  8
ViaHoles
 42
1.000000
 10
423.525950
 20
356.997000
  0
VERTEX
  8
ViaHoles
 42
1.000000
 10
423.843450
 20
356.997000
  0
SEQEND
  0
POLYLINE
  8
ViaHoles
 66
1
 10
0.000000
 20
0.000000
 30
0.000000
 40
0.317500
 41
0.317500
 70
1
  0
VERTEX
  8
ViaHoles
 42
1.000000
 10
423.881550
 20
360.603800
  0
VERTEX
  8
ViaHoles
 42
1.000000
 10
424.199050
 20
360.603800
  0
SEQEND
  0
POLYLINE
  8
ViaHoles
 66
1
 10
0.000000
 20
0.000000
 30
0.000000
 40
0.317500
 41
0.317500
 70
1
  0
VERTEX
  8
ViaHoles
 42
1.000000
 10
335.006950
 20
345.109800
  0
VERTEX
  8
ViaHoles
 42
1.000000
 10
335.324450
 20
345.109800
  0
SEQEND
  0
POLYLINE
  8
ViaHoles
 66
1
 10
0.000000
 20
0.000000
 30
0.000000
 40
0.317500
 41
0.317500
 70
1
  0
VERTEX
  8
ViaHoles
 42
1.000000
 10
348.773750
 20
374.370600
  0
VERTEX
  8
ViaHoles
 42
1.000000
 10
349.091250
 20
374.370600
  0
SEQEND
  0
POLYLINE
  8
ViaHoles
 66
1
 10
0.000000
 20
0.000000
 30
0.000000
 40
0.317500
 41
0.317500
 70
1
  0
VERTEX
  8
ViaHoles
 42
1.000000
 10
352.583750
 20
374.370600
  0
VERTEX
  8
ViaHoles
 42
1.000000
 10
352.901250
 20
374.370600
  0
SEQEND
  0
POLYLINE
  8
ViaHoles
 66
1
 10
0.000000
 20
0.000000
 30
0.000000
 40
0.317500
 41
0.317500
 70
1
  0
VERTEX
  8
ViaHoles
 42
1.000000
 10
332.746350
 20
347.573600
  0
VERTEX
  8
ViaHoles
 42
1.000000
 10
333.063850
 20
347.573600
  0
SEQEND
  0
POLYLINE
  8
ViaHoles
 66
1
 10
0.000000
 20
0.000000
 30
0.000000
 40
0.317500
 41
0.317500
 70
1
  0
VERTEX
  8
ViaHoles
 42
1.000000
 10
346.741750
 20
373.100600
  0
VERTEX
  8
ViaHoles
 42
1.000000
 10
347.059250
 20
373.100600
  0
SEQEND
  0
POLYLINE
  8
ViaHoles
 66
1
 10
0.000000
 20
0.000000
 30
0.000000
 40
0.317500
 41
0.317500
 70
1
  0
VERTEX
  8
ViaHoles
 42
1.000000
 10
329.317350
 20
358.190800
  0
VERTEX
  8
ViaHoles
 42
1.000000
 10
329.634850
 20
358.190800
  0
SEQEND
  0
POLYLINE
  8
ViaHoles
 66
1
 10
0.000000
 20
0.000000
 30
0.000000
 40
0.317500
 41
0.317500
 70
1
  0
VERTEX
  8
ViaHoles
 42
1.000000
 10
435.082950
 20
348.996000
  0
VERTEX
  8
ViaHoles
 42
1.000000
 10
435.400450
 20
348.996000
  0
SEQEND
  0
POLYLINE
  8
ViaHoles
 66
1
 10
0.000000
 20
0.000000
 30
0.000000
 40
0.317500
 41
0.317500
 70
1
  0
VERTEX
  8
ViaHoles
 42
1.000000
 10
441.712350
 20
361.543600
  0
VERTEX
  8
ViaHoles
 42
1.000000
 10
442.029850
 20
361.543600
  0
SEQEND
  0
POLYLINE
  8
ViaHoles
 66
1
 10
0.000000
 20
0.000000
 30
0.000000
 40
0.317500
 41
0.317500
 70
1
  0
VERTEX
  8
ViaHoles
 42
1.000000
 10
404.526750
 20
367.665000
  0
VERTEX
  8
ViaHoles
 42
1.000000
 10
404.844250
 20
367.665000
  0
SEQEND
  0
POLYLINE
  8
ViaHoles
 66
1
 10
0.000000
 20
0.000000
 30
0.000000
 40
0.317500
 41
0.317500
 70
1
  0
VERTEX
  8
ViaHoles
 42
1.000000
 10
414.712150
 20
357.860600
  0
VERTEX
  8
ViaHoles
 42
1.000000
 10
415.029650
 20
357.860600
  0
SEQEND
  0
POLYLINE
  8
ViaHoles
 66
1
 10
0.000000
 20
0.000000
 30
0.000000
 40
0.317500
 41
0.317500
 70
1
  0
VERTEX
  8
ViaHoles
 42
1.000000
 10
416.667950
 20
338.810600
  0
VERTEX
  8
ViaHoles
 42
1.000000
 10
416.985450
 20
338.810600
  0
SEQEND
  0
POLYLINE
  8
ViaHoles
 66
1
 10
0.000000
 20
0.000000
 30
0.000000
 40
0.317500
 41
0.317500
 70
1
  0
VERTEX
  8
ViaHoles
 42
1.000000
 10
449.789550
 20
363.956600
  0
VERTEX
  8
ViaHoles
 42
1.000000
 10
450.107050
 20
363.956600
  0
SEQEND
  0
POLYLINE
  8
ViaHoles
 66
1
 10
0.000000
 20
0.000000
 30
0.000000
 40
0.317500
 41
0.317500
 70
1
  0
VERTEX
  8
ViaHoles
 42
1.000000
 10
445.293750
 20
371.830600
  0
VERTEX
  8
ViaHoles
 42
1.000000
 10
445.611250
 20
371.830600
  0
SEQEND
  0
POLYLINE
  8
ViaHoles
 66
1
 10
0.000000
 20
0.000000
 30
0.000000
 40
0.317500
 41
0.317500
 70
1
  0
VERTEX
  8
ViaHoles
 42
1.000000
 10
445.420750
 20
366.877600
  0
VERTEX
  8
ViaHoles
 42
1.000000
 10
445.738250
 20
366.877600
  0
SEQEND
  0
POLYLINE
  8
ViaHoles
 66
1
 10
0.000000
 20
0.000000
 30
0.000000
 40
0.317500
 41
0.317500
 70
1
  0
VERTEX
  8
ViaHoles
 42
1.000000
 10
449.789550
 20
368.808000
  0
VERTEX
  8
ViaHoles
 42
1.000000
 10
450.107050
 20
368.808000
  0
SEQEND
  0
POLYLINE
  8
ViaHoles
 66
1
 10
0.000000
 20
0.000000
 30
0.000000
 40
0.317500
 41
0.317500
 70
1
  0
VERTEX
  8
ViaHoles
 42
1.000000
 10
427.005750
 20
340.842600
  0
VERTEX
  8
ViaHoles
 42
1.000000
 10
427.323250
 20
340.842600
  0
SEQEND
  0
POLYLINE
  8
ViaHoles
 66
1
 10
0.000000
 20
0.000000
 30
0.000000
 40
0.317500
 41
0.317500
 70
1
  0
VERTEX
  8
ViaHoles
 42
1.000000
 10
394.747750
 20
356.997000
  0
VERTEX
  8
ViaHoles
 42
1.000000
 10
395.065250
 20
356.997000
  0
SEQEND
  0
POLYLINE
  8
ViaHoles
 66
1
 10
0.000000
 20
0.000000
 30
0.000000
 40
0.317500
 41
0.317500
 70
1
  0
VERTEX
  8
ViaHoles
 42
1.000000
 10
419.258750
 20
348.894400
  0
VERTEX
  8
ViaHoles
 42
1.000000
 10
419.576250
 20
348.894400
  0
SEQEND
  0
POLYLINE
  8
ViaHoles
 66
1
 10
0.000000
 20
0.000000
 30
0.000000
 40
0.317500
 41
0.317500
 70
1
  0
VERTEX
  8
ViaHoles
 42
1.000000
 10
353.396550
 20
366.852200
  0
VERTEX
  8
ViaHoles
 42
1.000000
 10
353.714050
 20
366.852200
  0
SEQEND
  0
POLYLINE
  8
ViaHoles
 66
1
 10
0.000000
 20
0.000000
 30
0.000000
 40
0.317500
 41
0.317500
 70
1
  0
VERTEX
  8
ViaHoles
 42
1.000000
 10
374.808750
 20
351.866200
  0
VERTEX
  8
ViaHoles
 42
1.000000
 10
375.126250
 20
351.866200
  0
SEQEND
  0
POLYLINE
  8
ViaHoles
 66
1
 10
0.000000
 20
0.000000
 30
0.000000
 40
0.317500
 41
0.317500
 70
1
  0
VERTEX
  8
ViaHoles
 42
1.000000
 10
391.191750
 20
361.569000
  0
VERTEX
  8
ViaHoles
 42
1.000000
 10
391.509250
 20
361.569000
  0
SEQEND
  0
POLYLINE
  8
ViaHoles
 66
1
 10
0.000000
 20
0.000000
 30
0.000000
 40
0.317500
 41
0.317500
 70
1
  0
VERTEX
  8
ViaHoles
 42
1.000000
 10
361.473750
 20
355.193600
  0
VERTEX
  8
ViaHoles
 42
1.000000
 10
361.791250
 20
355.193600
  0
SEQEND
  0
POLYLINE
  8
ViaHoles
 66
1
 10
0.000000
 20
0.000000
 30
0.000000
 40
0.317500
 41
0.317500
 70
1
  0
VERTEX
  8
ViaHoles
 42
1.000000
 10
352.126550
 20
365.582200
  0
VERTEX
  8
ViaHoles
 42
1.000000
 10
352.444050
 20
365.582200
  0
SEQEND
  0
POLYLINE
  8
ViaHoles
 66
1
 10
0.000000
 20
0.000000
 30
0.000000
 40
0.317500
 41
0.317500
 70
1
  0
VERTEX
  8
ViaHoles
 42
1.000000
 10
413.416750
 20
357.860600
  0
VERTEX
  8
ViaHoles
 42
1.000000
 10
413.734250
 20
357.860600
  0
SEQEND
  0
POLYLINE
  8
ViaHoles
 66
1
 10
0.000000
 20
0.000000
 30
0.000000
 40
0.317500
 41
0.317500
 70
1
  0
VERTEX
  8
ViaHoles
 42
1.000000
 10
346.462350
 20
370.103400
  0
VERTEX
  8
ViaHoles
 42
1.000000
 10
346.779850
 20
370.103400
  0
SEQEND
  0
POLYLINE
  8
ViaHoles
 66
1
 10
0.000000
 20
0.000000
 30
0.000000
 40
0.317500
 41
0.317500
 70
1
  0
VERTEX
  8
ViaHoles
 42
1.000000
 10
382.835150
 20
340.080600
  0
VERTEX
  8
ViaHoles
 42
1.000000
 10
383.152650
 20
340.080600
  0
SEQEND
  0
POLYLINE
  8
ViaHoles
 66
1
 10
0.000000
 20
0.000000
 30
0.000000
 40
0.317500
 41
0.317500
 70
1
  0
VERTEX
  8
ViaHoles
 42
1.000000
 10
381.565150
 20
340.080600
  0
VERTEX
  8
ViaHoles
 42
1.000000
 10
381.882650
 20
340.080600
  0
SEQEND
  0
POLYLINE
  8
ViaHoles
 66
1
 10
0.000000
 20
0.000000
 30
0.000000
 40
0.317500
 41
0.317500
 70
1
  0
VERTEX
  8
ViaHoles
 42
1.000000
 10
483.266750
 20
341.223600
  0
VERTEX
  8
ViaHoles
 42
1.000000
 10
483.584250
 20
341.223600
  0
SEQEND
  0
POLYLINE
  8
ViaHoles
 66
1
 10
0.000000
 20
0.000000
 30
0.000000
 40
0.317500
 41
0.317500
 70
1
  0
VERTEX
  8
ViaHoles
 42
1.000000
 10
483.266750
 20
336.905600
  0
VERTEX
  8
ViaHoles
 42
1.000000
 10
483.584250
 20
336.905600
  0
SEQEND
  0
POLYLINE
  8
ViaHoles
 66
1
 10
0.000000
 20
0.000000
 30
0.000000
 40
0.317500
 41
0.317500
 70
1
  0
VERTEX
  8
ViaHoles
 42
1.000000
 10
485.298750
 20
339.064600
  0
VERTEX
  8
ViaHoles
 42
1.000000
 10
485.616250
 20
339.064600
  0
SEQEND
  0
POLYLINE
  8
ViaHoles
 66
1
 10
0.000000
 20
0.000000
 30
0.000000
 40
0.317500
 41
0.317500
 70
1
  0
VERTEX
  8
ViaHoles
 42
1.000000
 10
481.107750
 20
339.064600
  0
VERTEX
  8
ViaHoles
 42
1.000000
 10
481.425250
 20
339.064600
  0
SEQEND
  0
POLYLINE
  8
ViaHoles
 66
1
 10
0.000000
 20
0.000000
 30
0.000000
 40
0.317500
 41
0.317500
 70
1
  0
VERTEX
  8
ViaHoles
 42
1.000000
 10
481.742750
 20
340.715600
  0
VERTEX
  8
ViaHoles
 42
1.000000
 10
482.060250
 20
340.715600
  0
SEQEND
  0
POLYLINE
  8
ViaHoles
 66
1
 10
0.000000
 20
0.000000
 30
0.000000
 40
0.317500
 41
0.317500
 70
1
  0
VERTEX
  8
ViaHoles
 42
1.000000
 10
484.790750
 20
340.715600
  0
VERTEX
  8
ViaHoles
 42
1.000000
 10
485.108250
 20
340.715600
  0
SEQEND
  0
POLYLINE
  8
ViaHoles
 66
1
 10
0.000000
 20
0.000000
 30
0.000000
 40
0.317500
 41
0.317500
 70
1
  0
VERTEX
  8
ViaHoles
 42
1.000000
 10
481.869750
 20
337.413600
  0
VERTEX
  8
ViaHoles
 42
1.000000
 10
482.187250
 20
337.413600
  0
SEQEND
  0
POLYLINE
  8
ViaHoles
 66
1
 10
0.000000
 20
0.000000
 30
0.000000
 40
0.317500
 41
0.317500
 70
1
  0
VERTEX
  8
ViaHoles
 42
1.000000
 10
484.790750
 20
337.540600
  0
VERTEX
  8
ViaHoles
 42
1.000000
 10
485.108250
 20
337.540600
  0
SEQEND
  0
POLYLINE
  8
ViaHoles
 66
1
 10
0.000000
 20
0.000000
 30
0.000000
 40
0.317500
 41
0.317500
 70
1
  0
VERTEX
  8
ViaHoles
 42
1.000000
 10
329.215750
 20
374.243600
  0
VERTEX
  8
ViaHoles
 42
1.000000
 10
329.533250
 20
374.243600
  0
SEQEND
  0
POLYLINE
  8
ViaHoles
 66
1
 10
0.000000
 20
0.000000
 30
0.000000
 40
0.317500
 41
0.317500
 70
1
  0
VERTEX
  8
ViaHoles
 42
1.000000
 10
329.215750
 20
369.925600
  0
VERTEX
  8
ViaHoles
 42
1.000000
 10
329.533250
 20
369.925600
  0
SEQEND
  0
POLYLINE
  8
ViaHoles
 66
1
 10
0.000000
 20
0.000000
 30
0.000000
 40
0.317500
 41
0.317500
 70
1
  0
VERTEX
  8
ViaHoles
 42
1.000000
 10
331.374750
 20
372.084600
  0
VERTEX
  8
ViaHoles
 42
1.000000
 10
331.692250
 20
372.084600
  0
SEQEND
  0
POLYLINE
  8
ViaHoles
 66
1
 10
0.000000
 20
0.000000
 30
0.000000
 40
0.317500
 41
0.317500
 70
1
  0
VERTEX
  8
ViaHoles
 42
1.000000
 10
327.056750
 20
372.084600
  0
VERTEX
  8
ViaHoles
 42
1.000000
 10
327.374250
 20
372.084600
  0
SEQEND
  0
POLYLINE
  8
ViaHoles
 66
1
 10
0.000000
 20
0.000000
 30
0.000000
 40
0.317500
 41
0.317500
 70
1
  0
VERTEX
  8
ViaHoles
 42
1.000000
 10
327.691750
 20
373.608600
  0
VERTEX
  8
ViaHoles
 42
1.000000
 10
328.009250
 20
373.608600
  0
SEQEND
  0
POLYLINE
  8
ViaHoles
 66
1
 10
0.000000
 20
0.000000
 30
0.000000
 40
0.317500
 41
0.317500
 70
1
  0
VERTEX
  8
ViaHoles
 42
1.000000
 10
330.739750
 20
370.560600
  0
VERTEX
  8
ViaHoles
 42
1.000000
 10
331.057250
 20
370.560600
  0
SEQEND
  0
POLYLINE
  8
ViaHoles
 66
1
 10
0.000000
 20
0.000000
 30
0.000000
 40
0.317500
 41
0.317500
 70
1
  0
VERTEX
  8
ViaHoles
 42
1.000000
 10
330.612750
 20
373.735600
  0
VERTEX
  8
ViaHoles
 42
1.000000
 10
330.930250
 20
373.735600
  0
SEQEND
  0
POLYLINE
  8
ViaHoles
 66
1
 10
0.000000
 20
0.000000
 30
0.000000
 40
0.317500
 41
0.317500
 70
1
  0
VERTEX
  8
ViaHoles
 42
1.000000
 10
327.818750
 20
370.433600
  0
VERTEX
  8
ViaHoles
 42
1.000000
 10
328.136250
 20
370.433600
  0
SEQEND
  0
ENDSEC
  0
EOF
